  0
SECTION
  2
HEADER
  9
$ACADVER
  1
AC1015
  9
$ACADMAINTVER
 70
     6
  9
$DWGCODEPAGE
  3
ANSI_932
  9
$INSBASE
 10
0.0
 20
0.0
 30
0.0
  9
$EXTMIN
 10
4.655702
 20
65.919835
 30
1.000000E+20
  9
$EXTMAX
 10
203.905556
 20
248.843209
 30
-1.000000E+20
  9
$LIMMIN
 10
4.655702
 20
65.919835
  9
$LIMMAX
 10
203.905556
 20
248.843209
  9
$ORTHOMODE
 70
     0
  9
$REGENMODE
 70
     1
  9
$FILLMODE
 70
     1
  9
$QTEXTMODE
 70
     0
  9
$MIRRTEXT
 70
     1
  9
$LTSCALE
 40
1.0
  9
$ATTMODE
 70
     1
  9
$TEXTSIZE
 40
0.2
  9
$TRACEWID
 40
0.05
  9
$TEXTSTYLE
  7
Standard
  9
$CLAYER
  8
0
  9
$CELTYPE
  6
Continuous
  9
$CECOLOR
 62
   256
  9
$CELTSCALE
 40
1.0
  9
$DISPSILH
 70
     0
  9
$DIMSCALE
 40
1.0
  9
$DIMASZ
 40
0.18
  9
$DIMEXO
 40
0.0625
  9
$DIMDLI
 40
0.38
  9
$DIMRND
 40
0.0
  9
$DIMDLE
 40
0.0
  9
$DIMEXE
 40
0.18
  9
$DIMTP
 40
0.0
  9
$DIMTM
 40
0.0
  9
$DIMTXT
 40
0.18
  9
$DIMCEN
 40
0.09
  9
$DIMTSZ
 40
0.0
  9
$DIMTOL
 70
     0
  9
$DIMLIM
 70
     0
  9
$DIMTIH
 70
     1
  9
$DIMTOH
 70
     1
  9
$DIMSE1
 70
     0
  9
$DIMSE2
 70
     0
  9
$DIMTAD
 70
     0
  9
$DIMZIN
 70
     0
  9
$DIMBLK
  1

  9
$DIMASO
 70
     1
  9
$DIMSHO
 70
     1
  9
$DIMPOST
  1

  9
$DIMAPOST
  1

  9
$DIMALT
 70
     0
  9
$DIMALTD
 70
     2
  9
$DIMALTF
 40
25.4
  9
$DIMLFAC
 40
1.0
  9
$DIMTOFL
 70
     0
  9
$DIMTVP
 40
0.0
  9
$DIMTIX
 70
     0
  9
$DIMSOXD
 70
     0
  9
$DIMSAH
 70
     0
  9
$DIMBLK1
  1

  9
$DIMBLK2
  1

  9
$DIMSTYLE
  2
Standard
  9
$DIMCLRD
 70
     0
  9
$DIMCLRE
 70
     0
  9
$DIMCLRT
 70
     0
  9
$DIMTFAC
 40
1.0
  9
$DIMGAP
 40
0.09
  9
$DIMJUST
 70
     0
  9
$DIMSD1
 70
     0
  9
$DIMSD2
 70
     0
  9
$DIMTOLJ
 70
     1
  9
$DIMTZIN
 70
     0
  9
$DIMALTZ
 70
     0
  9
$DIMALTTZ
 70
     0
  9
$DIMUPT
 70
     0
  9
$DIMDEC
 70
     4
  9
$DIMTDEC
 70
     4
  9
$DIMALTU
 70
     2
  9
$DIMALTTD
 70
     2
  9
$DIMTXSTY
  7
Standard
  9
$DIMAUNIT
 70
     0
  9
$DIMADEC
 70
     0
  9
$DIMALTRND
 40
0.0
  9
$DIMAZIN
 70
     0
  9
$DIMDSEP
 70
     0
  9
$DIMATFIT
 70
     3
  9
$DIMFRAC
 70
     0
  9
$DIMLDRBLK
  1

  9
$DIMLUNIT
 70
     2
  9
$DIMLWD
 70
     0
  9
$DIMLWE
 70
     0
  9
$DIMTMOVE
 70
     0
  9
$LUNITS
 70
     2
  9
$LUPREC
 70
     4
  9
$SKETCHINC
 40
0.1
  9
$FILLETRAD
 40
0.0
  9
$AUNITS
 70
     0
  9
$AUPREC
 70
     0
  9
$MENU
  1
acad
  9
$ELEVATION
 40
0.0
  9
$PELEVATION
 40
0.0
  9
$THICKNESS
 40
0.0
  9
$LIMCHECK
 70
     0
  9
$CHAMFERA
 40
0.0
  9
$CHAMFERB
 40
0.0
  9
$CHAMFERC
 40
0.0
  9
$CHAMFERD
 40
0.0
  9
$SKPOLY
 70
     0
  9
$TDCREATE
 40
0.000000000
  9
$TDUCREATE
 40
0.000000000
  9
$TDUPDATE
 40
0.000000000
  9
$TDUUPDATE
 40
0.000000000
  9
$TDINDWG
 40
0.0000000000
  9
$TDUSRTIMER
 40
0.0000000000
  9
$USRTIMER
 70
     1
  9
$ANGBASE
 50
0.0
  9
$ANGDIR
 70
     0
  9
$PDMODE
 70
     0
  9
$PDSIZE
 40
0.0
  9
$PLINEWID
 40
0.0
  9
$SPLFRAME
 70
     0
  9
$SPLINETYPE
 70
     6
  9
$SPLINESEGS
 70
     8
  9
$HANDSEED
  5
271
  9
$SURFTAB1
 70
     6
  9
$SURFTAB2
 70
     6
  9
$SURFTYPE
 70
     6
  9
$SURFU
 70
     6
  9
$SURFV
 70
     6
  9
$UCSBASE
  2

  9
$UCSNAME
  2

  9
$UCSORG
 10
0.0
 20
0.0
 30
0.0
  9
$UCSXDIR
 10
1.0
 20
0.0
 30
0.0
  9
$UCSYDIR
 10
0.0
 20
1.0
 30
0.0
  9
$UCSORTHOREF
  2

  9
$UCSORTHOVIEW
 70
     0
  9
$UCSORGTOP
 10
0.0
 20
0.0
 30
0.0
  9
$UCSORGBOTTOM
 10
0.0
 20
0.0
 30
0.0
  9
$UCSORGLEFT
 10
0.0
 20
0.0
 30
0.0
  9
$UCSORGRIGHT
 10
0.0
 20
0.0
 30
0.0
  9
$UCSORGFRONT
 10
0.0
 20
0.0
 30
0.0
  9
$UCSORGBACK
 10
0.0
 20
0.0
 30
0.0
  9
$PUCSBASE
  2

  9
$PUCSNAME
  2

  9
$PUCSORG
 10
0.0
 20
0.0
 30
0.0
  9
$PUCSXDIR
 10
1.0
 20
0.0
 30
0.0
  9
$PUCSYDIR
 10
0.0
 20
1.0
 30
0.0
  9
$PUCSORTHOREF
  2

  9
$PUCSORTHOVIEW
 70
     0
  9
$PUCSORGTOP
 10
0.0
 20
0.0
 30
0.0
  9
$PUCSORGBOTTOM
 10
0.0
 20
0.0
 30
0.0
  9
$PUCSORGLEFT
 10
0.0
 20
0.0
 30
0.0
  9
$PUCSORGRIGHT
 10
0.0
 20
0.0
 30
0.0
  9
$PUCSORGFRONT
 10
0.0
 20
0.0
 30
0.0
  9
$PUCSORGBACK
 10
0.0
 20
0.0
 30
0.0
  9
$USERI1
 70
     0
  9
$USERI2
 70
     0
  9
$USERI3
 70
     0
  9
$USERI4
 70
     0
  9
$USERI5
 70
     0
  9
$USERR1
 40
0.0
  9
$USERR2
 40
0.0
  9
$USERR3
 40
0.0
  9
$USERR4
 40
0.0
  9
$USERR5
 40
0.0
  9
$WORLDVIEW
 70
     1
  9
$SHADEDGE
 70
     3
  9
$SHADEDIF
 70
    70
  9
$TILEMODE
 70
     1
  9
$MAXACTVP
 70
    16
  9
$PINSBASE
 10
0.0
 20
0.0
 30
0.0
  9
$PLIMCHECK
 70
     0
  9
$PEXTMIN
 10
1.000000E+20
 20
1.000000E+20
 30
1.000000E+20
  9
$PEXTMAX
 10
-1.000000E+20
 20
-1.000000E+20
 30
-1.000000E+20
  9
$PLIMMIN
 10
0.0
 20
0.0
  9
$PLIMMAX
 10
12.0
 20
9.0
  9
$UNITMODE
 70
     0
  9
$VISRETAIN
 70
     0
  9
$PLINEGEN
 70
     1
  9
$PSLTSCALE
 70
     0
  9
$TREEDEPTH
 70
  3020
  9
$CMLSTYLE
  2
Standard
  9
$CMLJUST
 70
     0
  9
$CMLSCALE
 40
1.0
  9
$PROXYGRAPHICS
 70
     0
  9
$MEASUREMENT
 70
     0
  9
$CELWEIGHT
370
     0
  9
$ENDCAPS
280
     0
  9
$JOINSTYLE
280
     0
  9
$LWDISPLAY
290
     0
  9
$INSUNITS
 70
     0
  9
$HYPERLINKBASE
  1

  9
$XEDIT
290
     1
  9
$CEPSNTYPE
380
     0
  9
$PSTYLEMODE
290
     1
  9
$FINGERPRINTGUID
  2

  9
$VERSIONGUID
  2

  9
$EXTNAMES
290
     1
  9
$PSVPSCALE
 40
0.0
  0
ENDSEC
  0
SECTION
  2
CLASSES
  0
CLASS
  1
LWPOLYLINE
  2
AcDbPolyline
  3
"AutoCAD"
 90
        0
280
     0
281
     1
  0
CLASS
  1
IMAGE
  2
AcDbRasterImage
  3
ISM
 90
      127
280
     0
281
     1
  0
CLASS
  1
OLE2FRAME
  2
AcDbOle2Frame
  3
""
 90
        0
280
     0
281
     1
  0
CLASS
  1
HATCH
  2
AcDbHatch
  3
"ACAD_SEDONA"
 90
        0
280
     0
281
     1
  0
CLASS
  1
DICTIONARYVAR
  2
AcDbDictionaryVar
  3
"AutoCAD"
 90
        0
280
     0
281
     0
  0
CLASS
  1
RASTERVARIABLES
  2
AcDbRasterVariables
  3
ISM
 90
        0
280
     0
281
     0
  0
CLASS
  1
IMAGEDEF
  2
AcDbRasterImageDef
  3
ISM
 90
        0
280
     0
281
     0
  0
CLASS
  1
IMAGEDEF_REACTOR
  2
AcDbRasterImageDefReactor
  3
ISM
 90
        1
280
     0
281
     0
  0
CLASS
  1
IDBUFFER
  2
AcDbIdBuffer
  3
"Acad"
 90
        0
280
     0
281
     0
  0
CLASS
  1
SPATIAL_FILTER
  2
AcDbSpatialFilter
  3
"Acad"
 90
        0
280
     0
281
     0
  0
CLASS
  1
XRECORD
  2
AcDbXrecord
  3
"<Built In>"
 90
        0
280
     0
281
     0
  0
CLASS
  1
SORTENTSTABLE
  2
AcDbSortentsTable
  3
"AutoCAD"
 90
        0
280
     0
281
     0
  0
CLASS
  1
LAYER_INDEX
  2
AcDbLayerIndex
  3
"Acad"
 90
        0
280
     0
281
     0
  0
CLASS
  1
SPATIAL_INDEX
  2
AcDbSpatialIndex
  3
"Acad"
 90
        0
280
     0
281
     0
  0
CLASS
  1
OBJECT_PTR
  2
CAseDLPNTableRecord
  3
"ASE-LPNTableRecord"
 90
        1
280
     0
281
     0
  0
CLASS
  1
LAYOUT
  2
AcDbLayout
  3
"AutoCAD 2000"
 90
        1
280
     0
281
     0
  0
CLASS
  1
PLOTSETTINGS
  2
AcDbPlotSettings
  3
"AutoCAD 2000"
 90
        1
280
     0
281
     0
  0
CLASS
  1
ACDBDICTIONARYWDFLT
  2
AcDbDictionaryWithDefault
  3
"AutoCAD 2000"
 90
        1
280
     0
281
     0
  0
CLASS
  1
ACDBPLACEHOLDER
  2
AcDbPlaceHolder
  3
"AutoCAD 2000"
 90
        1
280
     0
281
     0
  0
CLASS
  1
VBA_PROJECT
  2
AcDbVbaProject
  3
"acadvba"
 90
        1
280
     0
281
     0
  0
CLASS
  1
WIPEOUT
  2
AcDbWipeout
  3
WipeOut|AutoCAD Express Tool|expresstools@autodesk.com
 90
      127
280
     0
281
     1
  0
CLASS
  1
WIPEOUTVARIABLES
  2
AcDbWipeoutVariables
  3
WipeOut|AutoCAD Express Tool|expresstools@autodesk.com
 90
        0
280
     0
281
     0
  0
CLASS
  1
RTEXT
  2
RText
  3
RText|AutoCAD Express Tool|expresstools@autodesk.com
 90
        0
280
     0
281
     1
  0
CLASS
  1
ARCALIGNEDTEXT
  2
AcDbArcAlignedText
  3
ATEXT|AutoCAD Express Tool|expresstools@autodesk.com
 90
        0
280
     0
281
     1
  0
ENDSEC
  0
SECTION
  2
TABLES
  0
TABLE
  2
VPORT
  5
7
100
AcDbSymbolTable
 70
     1
  0
VPORT
  5
15
100
AcDbSymbolTableRecord
100
AcDbViewportTableRecord
  2
*ACTIVE
 70
     0
 10
0.0
 20
0.0
 11
1.0
 21
1.0
 12
6.591288
 22
4.579184
 13
0.0
 23
0.0
 14
1.0
 24
1.0
 15
0.0
 25
0.0
 16
0.0
 26
0.0
 36
1.0
 17
0.0
 27
0.0
 37
0.0
 40
9.158369
 41
0.688564
 42
50.0
 43
0.0
 44
0.0
 50
0.0
 51
0.0
 71
     0
 72
   100
 73
     1
 74
     1
 75
     0
 76
     0
 77
     0
 78
     0
281
     0
 65
     0
110
0.0
120
0.0
130
0.0
111
1.0
121
0.0
131
0.0
112
0.0
122
1.0
132
0.0
345
0
346
0
 79
     0
146
0.0
  0
ENDTAB
  0
TABLE
  2
LTYPE
  5
4
100
AcDbSymbolTable
 70
     4
  0
LTYPE
  5
11
100
AcDbSymbolTableRecord
100
AcDbLinetypeTableRecord
  2
ByBlock
 70
    64
  3

 72
    65
 73
     0
 40
0.0
  0
LTYPE
  5
12
100
AcDbSymbolTableRecord
100
AcDbLinetypeTableRecord
  2
ByLayer
 70
    64
  3

 72
    65
 73
     0
 40
0.0
  0
LTYPE
  5
13
100
AcDbSymbolTableRecord
100
AcDbLinetypeTableRecord
  2
Continuous
 70
    64
  3
Solid line
 72
    65
 73
     0
 40
0.0
  0
LTYPE
  5
254
100
AcDbSymbolTableRecord
100
AcDbLinetypeTableRecord
  2
AI9-LType1
 70
    64
  3
Illustrator Dash Style No.1
 72
    65
 73
     1
 40
1.058333
 49
1.058333
 74
     0
  0
ENDTAB
  0
TABLE
  2
LAYER
  5
2
100
AcDbSymbolTable
 70
     4
  0
LAYER
  5
14
100
AcDbSymbolTableRecord
100
AcDbLayerTableRecord
  2
0
 70
     0
 62
     7
  6
Continuous
290
     1
370
    -3
390
1D
  0
LAYER
  5
28
100
AcDbSymbolTableRecord
100
AcDbLayerTableRecord
  2
レイヤー_1
 70
     0
 62
   160
  6
Continuous
290
     1
370
    -3
390
1F
  0
LAYER
  5
31
100
AcDbSymbolTableRecord
100
AcDbLayerTableRecord
  2
0
 70
     0
 62
     7
  6
Continuous
290
     1
370
    -3
390
1F
  0
LAYER
  5
32
100
AcDbSymbolTableRecord
100
AcDbLayerTableRecord
  2
LAYER_1
 70
     0
 62
     7
  6
Continuous
290
     1
370
    -3
390
1F
  0
ENDTAB
  0
TABLE
  2
STYLE
  5
3
100
AcDbSymbolTable
 70
     5
  0
STYLE
  5
17
100
AcDbSymbolTableRecord
100
AcDbTextStyleTableRecord
  2
Standard
 70
     0
 40
0.0
 41
1.0
 50
0.0
 71
     0
 42
0.0
  3
txt
  4

  0
STYLE
  5
24
100
AcDbSymbolTableRecord
100
AcDbTextStyleTableRecord
  2
STD
 70
     0
 40
0.0
 41
1.0
 50
0.0
 71
     0
 42
0.0
  3
txt
  4

  0
STYLE
  5
25
100
AcDbSymbolTableRecord
100
AcDbTextStyleTableRecord
  2
TATESTD
 70
     4
 40
0.0
 41
1.0
 50
0.0
 71
     0
 42
0.0
  3
txt
  4

  0
STYLE
  5
26
100
AcDbSymbolTableRecord
100
AcDbTextStyleTableRecord
  2
KANJISTD
 70
     0
 40
0.0
 41
1.0
 50
0.0
 71
     0
 42
0.0
  3
txt
  4
extfont
  0
STYLE
  5
27
100
AcDbSymbolTableRecord
100
AcDbTextStyleTableRecord
  2
KANJITATE
 70
     4
 40
0.0
 41
1.0
 50
0.0
 71
     0
 42
0.0
  3
txt
  4
extfont
  0
ENDTAB
  0
TABLE
  2
VIEW
  5
5
100
AcDbSymbolTable
 70
     0
  0
ENDTAB
  0
TABLE
  2
UCS
  5
6
100
AcDbSymbolTable
 70
     0
  0
ENDTAB
  0
TABLE
  2
APPID
  5
8
100
AcDbSymbolTable
 70
     1
  0
APPID
  5
16
100
AcDbSymbolTableRecord
100
AcDbRegAppTableRecord
  2
ACAD
 70
     0
  0
ENDTAB
  0
TABLE
  2
DIMSTYLE
  5
9
100
AcDbSymbolTable
 70
     1
100
AcDbDimStyleTable
 71
     0
  0
DIMSTYLE
105
18
100
AcDbSymbolTableRecord
100
AcDbDimStyleTableRecord
  2
Standard
 70
     0
  3

  4

 40
1.0
 41
0.18
 42
0.0625
 43
0.38
 44
0.18
 45
0.0
 46
0.0
 47
0.0
 48
0.0
 71
     0
 72
     0
 73
     1
 74
     1
 75
     0
 76
     0
 77
     0
 78
     0
 79
     0
140
0.18
141
0.09
142
0.0
143
25.4
144
1.0
145
0.0
146
1.0
147
0.09
148
0.0
170
     0
171
     2
172
     0
173
     0
174
     0
175
     0
176
     0
177
     0
178
     0
179
     0
271
     4
272
     4
273
     2
274
     2
275
     0
276
     0
277
     2
278
    46
279
     0
280
     0
281
     0
282
     0
283
     1
284
     0
285
     0
286
     0
288
     0
340
17
341
0
342
0
343
0
344
0
371
    -2
372
    -2
  0
ENDTAB
  0
TABLE
  2
BLOCK_RECORD
  5
1
100
AcDbSymbolTable
 70
     1
  0
BLOCK_RECORD
  5
A
100
AcDbSymbolTableRecord
100
AcDbBlockTableRecord
  2
*MODEL_SPACE
340
20
  0
BLOCK_RECORD
  5
B
100
AcDbSymbolTableRecord
100
AcDbBlockTableRecord
  2
*PAPER_SPACE
340
21
  0
BLOCK_RECORD
  5
33
100
AcDbSymbolTableRecord
100
AcDbBlockTableRecord
  2
AI9-BLK1
340
0
  0
ENDTAB
  0
ENDSEC
  0
SECTION
  2
BLOCKS
  0
BLOCK
  5
D
100
AcDbEntity
  8
0
100
AcDbBlockBegin
  2
*MODEL_SPACE
 70
     0
 10
0.0
 20
0.0
 30
0.0
  3
*MODEL_SPACE
  1

  0
ENDBLK
  5
E
100
AcDbEntity
  8
0
100
AcDbBlockEnd
  0
BLOCK
  5
F
100
AcDbEntity
 67
     1
  8
0
100
AcDbBlockBegin
  2
*PAPER_SPACE
 70
     0
 10
0.0
 20
0.0
 30
0.0
  3
*PAPER_SPACE
  1

  0
ENDBLK
  5
10
100
AcDbEntity
 67
     1
  8
0
100
AcDbBlockEnd
  0
BLOCK
  5
35
100
AcDbEntity
  8
LAYER_1
 62
     7
100
AcDbBlockBegin
  2
AI9-BLK1
 70
     0
 10
0.0
 20
0.0
 30
0.0
  3
AI9-BLK1
  1

  0
LINE
  5
51
100
AcDbEntity
  8
LAYER_1
 62
     7
100
AcDbLine
 10
-0.173547
 20
-4.236434
 30
0.0
 11
-1.669752
 21
-5.732639
 31
0.0
  0
LINE
  5
50
100
AcDbEntity
  8
LAYER_1
 62
     7
100
AcDbLine
 10
-1.111646
 20
-3.326929
 30
0.0
 11
-2.593554
 21
-4.807631
 31
0.0
  0
LINE
  5
4F
100
AcDbEntity
  8
LAYER_1
 62
     7
100
AcDbLine
 10
-2.021151
 20
-2.388829
 30
0.0
 11
-3.545606
 21
-3.913628
 31
0.0
  0
LINE
  5
4E
100
AcDbEntity
  8
LAYER_1
 62
     7
100
AcDbLine
 10
-2.930657
 20
-1.451074
 30
0.0
 11
-4.441159
 21
-2.961404
 31
0.0
  0
LINE
  5
4D
100
AcDbEntity
  8
LAYER_1
 62
     7
100
AcDbLine
 10
-3.016956
 20
0.268717
 30
0.0
 11
-5.011839
 21
-1.725993
 31
0.0
  0
LINE
  5
4C
100
AcDbEntity
  8
LAYER_1
 62
     7
100
AcDbLine
 10
-3.016956
 20
2.116322
 30
0.0
 11
-5.065927
 21
0.068557
 31
0.0
  0
LINE
  5
4B
100
AcDbEntity
  8
LAYER_1
 62
     7
100
AcDbLine
 10
-3.016956
 20
3.963927
 30
0.0
 11
-5.065927
 21
1.916162
 31
0.0
  0
LINE
  5
4A
100
AcDbEntity
  8
LAYER_1
 62
     7
100
AcDbLine
 10
-3.016956
 20
5.811532
 30
0.0
 11
-5.065927
 21
3.763767
 31
0.0
  0
LINE
  5
49
100
AcDbEntity
  8
LAYER_1
 62
     7
100
AcDbLine
 10
2.855381
 20
-4.779036
 30
0.0
 11
0.84758
 21
-6.786838
 31
0.0
  0
LINE
  5
48
100
AcDbEntity
  8
LAYER_1
 62
     7
100
AcDbLine
 10
1.007777
 20
-4.779036
 30
0.0
 11
-0.746811
 21
-6.529489
 31
0.0
  0
LINE
  5
47
100
AcDbEntity
  8
LAYER_1
 62
     7
100
AcDbLine
 10
4.753284
 20
-4.687397
 30
0.0
 11
2.609746
 21
-6.830591
 31
0.0
  0
LINE
  5
46
100
AcDbEntity
  8
LAYER_1
 62
     7
100
AcDbLine
 10
-5.085392
 20
-0.587733
 30
0.0
 11
1.154882
 21
-6.828179
 31
0.0
  0
LINE
  5
45
100
AcDbEntity
  8
LAYER_1
 62
     7
100
AcDbLine
 10
-5.085392
 20
1.259871
 30
0.0
 11
-3.091715
 21
-0.733805
 31
0.0
  0
LINE
  5
44
100
AcDbEntity
  8
LAYER_1
 62
     7
100
AcDbLine
 10
1.147303
 20
-4.795917
 30
0.0
 11
3.140635
 21
-6.789594
 31
0.0
  0
LINE
  5
43
100
AcDbEntity
  8
LAYER_1
 62
     7
100
AcDbLine
 10
2.731358
 20
-4.710479
 30
0.0
 11
4.825631
 21
-6.803719
 31
0.0
  0
LINE
  5
42
100
AcDbEntity
  8
LAYER_1
 62
     7
100
AcDbLine
 10
-5.085392
 20
4.954736
 30
0.0
 11
-2.994908
 21
2.863219
 31
0.0
  0
LINE
  5
41
100
AcDbEntity
  8
LAYER_1
 62
     7
100
AcDbLine
 10
-5.085392
 20
3.107132
 30
0.0
 11
-2.994908
 21
1.015614
 31
0.0
  0
LINE
  5
40
100
AcDbEntity
  8
LAYER_1
 62
     7
100
AcDbLine
 10
-5.085392
 20
6.802341
 30
0.0
 11
-2.970447
 21
4.686019
 31
0.0
  0
POLYLINE
  5
36
100
AcDbEntity
  8
LAYER_1
 62
     7
100
AcDb2dPolyline
 66
     1
 10
0.0
 20
0.0
 30
0.0
 70
     1
  0
VERTEX
  5
37
100
AcDbEntity
  8
LAYER_1
 62
     7
100
AcDbVertex
100
AcDb2dVertex
 10
-0.548373
 20
-6.823012
 30
0.0
  0
VERTEX
  5
38
100
AcDbEntity
  8
LAYER_1
 62
     7
100
AcDbVertex
100
AcDb2dVertex
 10
5.11123
 20
-6.823012
 30
0.0
  0
VERTEX
  5
39
100
AcDbEntity
  8
LAYER_1
 62
     7
100
AcDbVertex
100
AcDb2dVertex
 10
5.11123
 20
-4.710479
 30
0.0
  0
VERTEX
  5
3A
100
AcDbEntity
  8
LAYER_1
 62
     7
100
AcDbVertex
100
AcDb2dVertex
 10
0.34184
 20
-4.722192
 30
0.0
  0
VERTEX
  5
3B
100
AcDbEntity
  8
LAYER_1
 62
     7
100
AcDbVertex
100
AcDb2dVertex
 10
-2.997491
 20
-1.480358
 30
0.0
  0
VERTEX
  5
3C
100
AcDbEntity
  8
LAYER_1
 62
     7
100
AcDbVertex
100
AcDb2dVertex
 10
-2.998697
 20
6.823012
 30
0.0
  0
VERTEX
  5
3D
100
AcDbEntity
  8
LAYER_1
 62
     7
100
AcDbVertex
100
AcDb2dVertex
 10
-5.11123
 20
6.823012
 30
0.0
  0
VERTEX
  5
3E
100
AcDbEntity
  8
LAYER_1
 62
     7
100
AcDbVertex
100
AcDb2dVertex
 10
-5.103478
 20
-2.370226
 30
0.0
  0
SEQEND
  5
3F
100
AcDbEntity
  8
LAYER_1
 62
     7
  0
ENDBLK
  5
52
100
AcDbEntity
  8
LAYER_1
100
AcDbBlockEnd
  0
ENDSEC
  0
SECTION
  2
ENTITIES
  0
SPLINE
  5
270
100
AcDbEntity
  8
LAYER_1
 62
     7
100
AcDbSpline
210
0.0
220
0.0
230
1.0
 70
     8
 71
     3
 72
    17
 73
    13
 74
     0
 42
0.00000001
 43
0.00000001
 40
0.0
 40
0.0
 40
0.0
 40
0.0
 40
1.0
 40
1.0
 40
1.0
 40
2.0
 40
2.0
 40
2.0
 40
3.0
 40
3.0
 40
3.0
 40
4.0
 40
4.0
 40
4.0
 40
4.0
 10
67.612927246093747
 20
157.15492078993054
 30
0.0
 10
67.41500651041666
 20
157.1535427517361
 30
0.0
 10
67.254981825086801
 20
156.99334581163194
 30
0.0
 10
67.253603786892356
 20
156.79559733072915
 30
0.0
 10
67.345760091145834
 20
156.55754123263887
 30
0.0
 10
67.612065972222211
 20
156.43765190972221
 30
0.0
 10
67.851327853732627
 20
156.52653537326387
 30
0.0
 10
67.927636718749994
 20
156.5952650282118
 30
0.0
 10
67.971561686197916
 20
156.69293348524303
 30
0.0
 10
67.972422960069437
 20
156.79559733072915
 30
0.0
 10
67.970872667100693
 20
156.99351806640624
 30
0.0
 10
67.81084798177082
 20
157.1535427517361
 30
0.0
 10
67.612927246093747
 20
157.15492078993054
 30
0.0
  0
POLYLINE
  5
26A
100
AcDbEntity
  8
LAYER_1
 62
     7
100
AcDb2dPolyline
 66
     1
 10
0.0
 20
0.0
 30
0.0
  0
VERTEX
  5
26B
100
AcDbEntity
  8
LAYER_1
 62
     7
100
AcDbVertex
100
AcDb2dVertex
 10
63.879994
 20
183.069963
 30
0.0
  0
VERTEX
  5
26C
100
AcDbEntity
  8
LAYER_1
 62
     7
100
AcDbVertex
100
AcDb2dVertex
 10
22.757956
 20
183.069963
 30
0.0
  0
VERTEX
  5
26D
100
AcDbEntity
  8
LAYER_1
 62
     7
100
AcDbVertex
100
AcDb2dVertex
 10
22.757956
 20
90.841656
 30
0.0
  0
VERTEX
  5
26E
100
AcDbEntity
  8
LAYER_1
 62
     7
100
AcDbVertex
100
AcDb2dVertex
 10
62.542263
 20
90.841656
 30
0.0
  0
SEQEND
  5
26F
100
AcDbEntity
  8
LAYER_1
 62
     7
  0
POLYLINE
  5
265
100
AcDbEntity
  8
LAYER_1
 62
     7
100
AcDb2dPolyline
 66
     1
 10
0.0
 20
0.0
 30
0.0
  0
VERTEX
  5
266
100
AcDbEntity
  8
LAYER_1
 62
     7
100
AcDbVertex
100
AcDb2dVertex
 10
22.245843
 20
92.752995
 30
0.0
  0
VERTEX
  5
267
100
AcDbEntity
  8
LAYER_1
 62
     7
100
AcDbVertex
100
AcDb2dVertex
 10
22.757956
 20
90.841656
 30
0.0
  0
VERTEX
  5
268
100
AcDbEntity
  8
LAYER_1
 62
     7
100
AcDbVertex
100
AcDb2dVertex
 10
23.27007
 20
92.752995
 30
0.0
  0
SEQEND
  5
269
100
AcDbEntity
  8
LAYER_1
 62
     7
  0
POLYLINE
  5
260
100
AcDbEntity
  8
LAYER_1
 62
     7
100
AcDb2dPolyline
 66
     1
 10
0.0
 20
0.0
 30
0.0
  0
VERTEX
  5
261
100
AcDbEntity
  8
LAYER_1
 62
     7
100
AcDbVertex
100
AcDb2dVertex
 10
23.27007
 20
181.027193
 30
0.0
  0
VERTEX
  5
262
100
AcDbEntity
  8
LAYER_1
 62
     7
100
AcDbVertex
100
AcDb2dVertex
 10
22.757956
 20
182.938188
 30
0.0
  0
VERTEX
  5
263
100
AcDbEntity
  8
LAYER_1
 62
     7
100
AcDbVertex
100
AcDb2dVertex
 10
22.245843
 20
181.027193
 30
0.0
  0
SEQEND
  5
264
100
AcDbEntity
  8
LAYER_1
 62
     7
  0
MTEXT
  5
25F
100
AcDbEntity
  8
LAYER_1
 62
     7
100
AcDbMText
 10
19.426742
 20
126.561095
 30
0.0
 40
2.610844
 41
0.0
 71
     1
 72
     2
  1
\W0.50;\fMS Gothic|b0|i0|c128;水上400以上
  7
KANJISTD
210
0.0
220
0.0
230
1.0
 11
0.0
 21
1.0
 31
0.0
 73
     1
 44
1.0
  0
MTEXT
  5
25E
100
AcDbEntity
  8
LAYER_1
 62
     7
100
AcDbMText
 10
16.009186
 20
229.675573
 30
0.0
 40
4.47571
 41
0.0
 71
     1
 72
     2
  1
\W0.50;\fMS Gothic|b0|i0|c128;●水切りタイプ　ホルダー独立方式　
  7
KANJISTD
210
0.0
220
0.0
230
1.0
 11
1.000001
 21
0.0
 31
0.0
 73
     1
 44
1.0
  0
MTEXT
  5
25D
100
AcDbEntity
  8
LAYER_1
 62
     7
100
AcDbMText
 10
4.938889
 20
69.068803
 30
0.0
 40
2.610844
 41
0.0
 71
     1
 72
     2
  1
\W0.50;\fMS Gothic|b0|i0|c128;(数字)は、参考寸法。
  7
KANJISTD
210
0.0
220
0.0
230
1.0
 11
1.000001
 21
0.0
 31
0.0
 73
     1
 44
1.0
  0
MTEXT
  5
25C
100
AcDbEntity
  8
LAYER_1
 62
     7
100
AcDbMText
 10
90.981527
 20
194.164699
 30
0.0
 40
2.610844
 41
0.0
 71
     1
 72
     2
  1
\W0.50;\fMS Gothic|b0|i0|c128;上部ホルダー取付部材
  7
KANJISTD
210
0.0
220
0.0
230
1.0
 11
1.000001
 21
0.0
 31
0.0
 73
     1
 44
1.0
  0
SPLINE
  5
25B
100
AcDbEntity
  8
LAYER_1
 62
     7
100
AcDbSpline
210
0.0
220
0.0
230
1.0
 70
     8
 71
     3
 72
    17
 73
    13
 74
     0
 42
0.00000001
 43
0.00000001
 40
0.0
 40
0.0
 40
0.0
 40
0.0
 40
1.0
 40
1.0
 40
1.0
 40
2.0
 40
2.0
 40
2.0
 40
3.0
 40
3.0
 40
3.0
 40
4.0
 40
4.0
 40
4.0
 40
4.0
 10
78.094285753038193
 20
168.54285617404511
 30
0.0
 10
78.170422363281247
 20
168.61175808376734
 30
0.0
 10
78.214175075954856
 20
168.7092542860243
 30
0.0
 10
78.21520860460069
 20
168.8119181315104
 30
0.0
 10
78.213830566406244
 20
169.00983886718748
 30
0.0
 10
78.053805881076386
 20
169.16986355251734
 30
0.0
 10
77.855885145399299
 20
169.17141384548609
 30
0.0
 10
77.657964409722211
 20
169.16986355251734
 30
0.0
 10
77.497939724392353
 20
169.00983886718748
 30
0.0
 10
77.496389431423609
 20
168.8119181315104
 30
0.0
 10
77.588717990451386
 20
168.57386203342011
 30
0.0
 10
77.855023871527777
 20
168.45414496527775
 30
0.0
 10
78.094285753038193
 20
168.54285617404511
 30
0.0
  0
LINE
  5
25A
100
AcDbEntity
  8
LAYER_1
 62
     7
100
AcDbLine
 10
67.322506
 20
157.006609
 30
0.0
 11
65.062523
 21
161.017906
 31
0.0
  0
POLYLINE
  5
255
100
AcDbEntity
  8
LAYER_1
  6
AI9-LType1
 62
     7
100
AcDb2dPolyline
 66
     1
 10
0.0
 20
0.0
 30
0.0
  0
VERTEX
  5
256
100
AcDbEntity
  8
LAYER_1
  6
AI9-LType1
 62
     7
100
AcDbVertex
100
AcDb2dVertex
 10
79.582739
 20
170.963897
 30
0.0
  0
VERTEX
  5
257
100
AcDbEntity
  8
LAYER_1
  6
AI9-LType1
 62
     7
100
AcDbVertex
100
AcDb2dVertex
 10
65.855067
 20
170.963897
 30
0.0
  0
VERTEX
  5
258
100
AcDbEntity
  8
LAYER_1
  6
AI9-LType1
 62
     7
100
AcDbVertex
100
AcDb2dVertex
 10
65.855067
 20
165.632267
 30
0.0
  0
SEQEND
  5
259
100
AcDbEntity
  8
LAYER_1
  6
AI9-LType1
 62
     7
  0
POLYLINE
  5
24E
100
AcDbEntity
  8
LAYER_1
 62
     7
100
AcDb2dPolyline
 66
     1
 10
0.0
 20
0.0
 30
0.0
  0
VERTEX
  5
24F
100
AcDbEntity
  8
LAYER_1
 62
     7
100
AcDbVertex
100
AcDb2dVertex
 10
73.155397
 20
165.768349
 30
0.0
  0
VERTEX
  5
250
100
AcDbEntity
  8
LAYER_1
 62
     7
100
AcDbVertex
100
AcDb2dVertex
 10
73.155397
 20
170.418194
 30
0.0
  0
VERTEX
  5
251
100
AcDbEntity
  8
LAYER_1
 62
     7
100
AcDbVertex
100
AcDb2dVertex
 10
76.190181
 20
170.418194
 30
0.0
  0
VERTEX
  5
252
100
AcDbEntity
  8
LAYER_1
 62
     7
100
AcDbVertex
100
AcDb2dVertex
 10
76.190181
 20
165.768349
 30
0.0
  0
SEQEND
  5
253
100
AcDbEntity
  8
LAYER_1
 62
     7
  0
POLYLINE
  5
247
100
AcDbEntity
  8
LAYER_1
 62
     7
100
AcDb2dPolyline
 66
     1
 10
0.0
 20
0.0
 30
0.0
  0
VERTEX
  5
248
100
AcDbEntity
  8
LAYER_1
 62
     7
100
AcDbVertex
100
AcDb2dVertex
 10
67.512675
 20
180.453068
 30
0.0
  0
VERTEX
  5
249
100
AcDbEntity
  8
LAYER_1
 62
     7
100
AcDbVertex
100
AcDb2dVertex
 10
65.593585
 20
180.453068
 30
0.0
  0
VERTEX
  5
24A
100
AcDbEntity
  8
LAYER_1
 62
     7
100
AcDbVertex
100
AcDb2dVertex
 10
65.593585
 20
176.275201
 30
0.0
  0
VERTEX
  5
24B
100
AcDbEntity
  8
LAYER_1
 62
     7
100
AcDbVertex
100
AcDb2dVertex
 10
77.255233
 20
174.740755
 30
0.0
  0
VERTEX
  5
24C
100
AcDbEntity
  8
LAYER_1
 62
     7
100
AcDbVertex
100
AcDb2dVertex
 10
77.255233
 20
165.051769
 30
0.0
  0
SEQEND
  5
24D
100
AcDbEntity
  8
LAYER_1
 62
     7
  0
POLYLINE
  5
241
100
AcDbEntity
  8
LAYER_1
 62
     7
100
AcDb2dPolyline
 66
     1
 10
0.0
 20
0.0
 30
0.0
 70
     1
  0
VERTEX
  5
242
100
AcDbEntity
  8
LAYER_1
 62
     7
100
AcDbVertex
100
AcDb2dVertex
 10
75.66601
 20
108.384082
 30
0.0
  0
VERTEX
  5
243
100
AcDbEntity
  8
LAYER_1
 62
     7
100
AcDbVertex
100
AcDb2dVertex
 10
75.66601
 20
168.164585
 30
0.0
  0
VERTEX
  5
244
100
AcDbEntity
  8
LAYER_1
 62
     7
100
AcDbVertex
100
AcDb2dVertex
 10
73.690076
 20
168.164585
 30
0.0
  0
VERTEX
  5
245
100
AcDbEntity
  8
LAYER_1
 62
     7
100
AcDbVertex
100
AcDb2dVertex
 10
73.690076
 20
108.384082
 30
0.0
  0
SEQEND
  5
246
100
AcDbEntity
  8
LAYER_1
 62
     7
  0
SPLINE
  5
240
100
AcDbEntity
  8
LAYER_1
 62
     7
100
AcDbSpline
210
0.0
220
0.0
230
1.0
 70
     8
 71
     3
 72
    11
 73
     7
 74
     0
 42
0.00000001
 43
0.00000001
 40
0.0
 40
0.0
 40
0.0
 40
0.0
 40
1.0
 40
1.0
 40
1.0
 40
2.0
 40
2.0
 40
2.0
 40
2.0
 10
67.436193847656241
 20
180.65787896050347
 30
0.0
 10
67.37142605251735
 20
181.08214246961805
 30
0.0
 10
67.357990180121519
 20
181.51243489583331
 30
0.0
 10
67.395713975694434
 20
181.93979899088541
 30
0.0
 10
67.447907172309016
 20
182.27138943142359
 30
0.0
 10
67.539546712239584
 20
182.59540066189234
 30
0.0
 10
67.668737792968741
 20
182.90511474609374
 30
0.0
  0
LINE
  5
23F
100
AcDbEntity
  8
LAYER_1
 62
     7
100
AcDbLine
 10
66.796784
 20
180.657707
 30
0.0
 11
67.320266
 21
181.181189
 31
0.0
  0
LINE
  5
23E
100
AcDbEntity
  8
LAYER_1
 62
     7
100
AcDbLine
 10
65.594446
 20
180.774323
 30
0.0
 11
67.537652
 21
182.717874
 31
0.0
  0
LINE
  5
23D
100
AcDbEntity
  8
LAYER_1
 62
     7
100
AcDbLine
 10
65.172594
 20
181.671598
 30
0.0
 11
66.505329
 21
183.004161
 31
0.0
  0
MTEXT
  5
23C
100
AcDbEntity
  8
LAYER_1
 62
     7
100
AcDbMText
 10
24.815367
 20
190.234017
 30
0.0
 40
2.610844
 41
0.0
 71
     1
 72
     2
  1
\W0.50;\fMS Gothic|b0|i0|c128;ゴムアスファルト系シール材
  7
KANJISTD
210
0.0
220
0.0
230
1.0
 11
1.000001
 21
0.0
 31
0.0
 73
     1
 44
1.0
  0
MTEXT
  5
23B
100
AcDbEntity
  8
LAYER_1
 62
     7
100
AcDbMText
 10
39.356082
 20
198.337915
 30
0.0
 40
2.610844
 41
0.0
 71
     1
 72
     2
  1
\W0.50;\fMS Gothic|b0|i0|c128;シーリング材
  7
KANJISTD
210
0.0
220
0.0
230
1.0
 11
1.000001
 21
0.0
 31
0.0
 73
     1
 44
1.0
  0
MTEXT
  5
23A
100
AcDbEntity
  8
LAYER_1
 62
     7
100
AcDbMText
 10
42.050146
 20
173.259171
 30
0.0
 40
2.610844
 41
0.0
 71
     1
 72
     2
  1
\W0.50;\fMS Gothic|b0|i0|c128;押え金物
  7
KANJISTD
210
0.0
220
0.0
230
1.0
 11
1.000001
 21
0.0
 31
0.0
 73
     1
 44
1.0
  0
LINE
  5
239
100
AcDbEntity
  8
LAYER_1
 62
     7
100
AcDbLine
 10
77.705162
 20
165.78454
 30
0.0
 11
92.082235
 21
165.78454
 31
0.0
  0
MTEXT
  5
238
100
AcDbEntity
  8
LAYER_1
 62
     7
100
AcDbMText
 10
92.785723
 20
201.06023
 30
0.0
 40
2.610844
 41
0.0
 71
     1
 72
     2
  1
\W0.50;\fMS Gothic|b0|i0|c128;水切り金物
  7
KANJISTD
210
0.0
220
0.0
230
1.0
 11
1.000001
 21
0.0
 31
0.0
 73
     1
 44
1.0
  0
MTEXT
  5
237
100
AcDbEntity
  8
LAYER_1
 62
     7
100
AcDbMText
 10
90.769309
 20
186.945846
 30
0.0
 40
2.610844
 41
0.0
 71
     1
 72
     2
  1
\W0.50;\fMS Gothic|b0|i0|c128;上部ホルダー
  7
KANJISTD
210
0.0
220
0.0
230
1.0
 11
1.000001
 21
0.0
 31
0.0
 73
     1
 44
1.0
  0
POLYLINE
  5
225
100
AcDbEntity
  8
LAYER_1
 62
     7
100
AcDb2dPolyline
 66
     1
 10
0.0
 20
0.0
 30
0.0
  0
VERTEX
  5
226
100
AcDbEntity
  8
LAYER_1
 62
     7
100
AcDbVertex
100
AcDb2dVertex
 10
38.750262
 20
66.915468
 30
0.0
  0
VERTEX
  5
227
100
AcDbEntity
  8
LAYER_1
 62
     7
100
AcDbVertex
100
AcDb2dVertex
 10
38.746989
 20
202.671522
 30
0.0
  0
VERTEX
  5
228
100
AcDbEntity
  8
LAYER_1
 62
     7
100
AcDbVertex
100
AcDb2dVertex
 10
44.733876
 20
204.787155
 30
0.0
  0
VERTEX
  5
229
100
AcDbEntity
  8
LAYER_1
 62
     7
100
AcDbVertex
100
AcDb2dVertex
 10
44.741111
 20
208.179541
 30
0.0
  0
VERTEX
  5
22A
100
AcDbEntity
  8
LAYER_1
 62
     7
100
AcDbVertex
100
AcDb2dVertex
 10
74.968551
 20
205.269813
 30
0.0
  0
VERTEX
  5
22B
100
AcDbEntity
  8
LAYER_1
 62
     7
100
AcDbVertex
100
AcDb2dVertex
 10
77.00598
 20
202.985371
 30
0.0
  0
VERTEX
  5
22C
100
AcDbEntity
  8
LAYER_1
 62
     7
100
AcDbVertex
100
AcDb2dVertex
 10
76.998056
 20
185.092061
 30
0.0
  0
VERTEX
  5
22D
100
AcDbEntity
  8
LAYER_1
 62
     7
100
AcDbVertex
100
AcDb2dVertex
 10
74.842288
 20
182.91166
 30
0.0
  0
VERTEX
  5
22E
100
AcDbEntity
  8
LAYER_1
 62
     7
100
AcDbVertex
100
AcDb2dVertex
 10
72.575415
 20
182.905115
 30
0.0
  0
VERTEX
  5
22F
100
AcDbEntity
  8
LAYER_1
 62
     7
100
AcDbVertex
100
AcDb2dVertex
 10
72.575415
 20
186.235661
 30
0.0
  0
VERTEX
  5
230
100
AcDbEntity
  8
LAYER_1
 62
     7
100
AcDbVertex
100
AcDb2dVertex
 10
69.937333
 20
186.235661
 30
0.0
  0
VERTEX
  5
231
100
AcDbEntity
  8
LAYER_1
 62
     7
100
AcDbVertex
100
AcDb2dVertex
 10
69.277942
 20
182.957997
 30
0.0
  0
VERTEX
  5
232
100
AcDbEntity
  8
LAYER_1
 62
     7
100
AcDbVertex
100
AcDb2dVertex
 10
65.146583
 20
182.950073
 30
0.0
  0
VERTEX
  5
233
100
AcDbEntity
  8
LAYER_1
 62
     7
100
AcDbVertex
100
AcDb2dVertex
 10
65.132631
 20
146.842372
 30
0.0
  0
VERTEX
  5
234
100
AcDbEntity
  8
LAYER_1
 62
     7
100
AcDbVertex
100
AcDb2dVertex
 10
65.119712
 20
90.520917
 30
0.0
  0
VERTEX
  5
235
100
AcDbEntity
  8
LAYER_1
 62
     7
100
AcDbVertex
100
AcDb2dVertex
 10
183.813414
 20
90.520917
 30
0.0
  0
SEQEND
  5
236
100
AcDbEntity
  8
LAYER_1
 62
     7
  0
LINE
  5
224
100
AcDbEntity
  8
LAYER_1
 62
     7
100
AcDbLine
 10
41.541306
 20
66.915468
 30
0.0
 11
41.541306
 21
203.688515
 31
0.0
  0
LINE
  5
223
100
AcDbEntity
  8
LAYER_1
 62
     7
100
AcDbLine
 10
57.873987
 20
168.888055
 30
0.0
 11
65.988392
 21
168.888055
 31
0.0
  0
LINE
  5
222
100
AcDbEntity
  8
LAYER_1
 62
     7
100
AcDbLine
 10
57.873987
 20
178.16518
 30
0.0
 11
65.988392
 21
178.16518
 31
0.0
  0
MTEXT
  5
221
100
AcDbEntity
  8
LAYER_1
 62
     7
100
AcDbMText
 10
67.94848
 20
214.895044
 30
0.0
 40
2.610844
 41
0.0
 71
     1
 72
     2
  1
\W0.50;\fMS Gothic|b0|i0|c128;(90)
  7
STD
210
0.0
220
0.0
230
1.0
 11
1.000001
 21
0.0
 31
0.0
 73
     1
 44
1.0
  0
POLYLINE
  5
21C
100
AcDbEntity
  8
LAYER_1
 62
     7
100
AcDb2dPolyline
 66
     1
 10
0.0
 20
0.0
 30
0.0
  0
VERTEX
  5
21D
100
AcDbEntity
  8
LAYER_1
 62
     7
100
AcDbVertex
100
AcDb2dVertex
 10
65.081988
 20
183.667514
 30
0.0
  0
VERTEX
  5
21E
100
AcDbEntity
  8
LAYER_1
 62
     7
100
AcDbVertex
100
AcDb2dVertex
 10
65.081988
 20
211.615507
 30
0.0
  0
VERTEX
  5
21F
100
AcDbEntity
  8
LAYER_1
 62
     7
100
AcDbVertex
100
AcDb2dVertex
 10
77.005636
 20
211.615507
 30
0.0
  0
SEQEND
  5
220
100
AcDbEntity
  8
LAYER_1
 62
     7
  0
LINE
  5
21B
100
AcDbEntity
  8
LAYER_1
 62
     7
100
AcDbLine
 10
77.005636
 20
203.582922
 30
0.0
 11
77.005636
 21
211.615507
 31
0.0
  0
POLYLINE
  5
216
100
AcDbEntity
  8
LAYER_1
 62
     7
100
AcDb2dPolyline
 66
     1
 10
0.0
 20
0.0
 30
0.0
  0
VERTEX
  5
217
100
AcDbEntity
  8
LAYER_1
 62
     7
100
AcDbVertex
100
AcDb2dVertex
 10
66.993155
 20
211.103738
 30
0.0
  0
VERTEX
  5
218
100
AcDbEntity
  8
LAYER_1
 62
     7
100
AcDbVertex
100
AcDb2dVertex
 10
65.081988
 20
211.615507
 30
0.0
  0
VERTEX
  5
219
100
AcDbEntity
  8
LAYER_1
 62
     7
100
AcDbVertex
100
AcDb2dVertex
 10
66.993155
 20
212.127276
 30
0.0
  0
SEQEND
  5
21A
100
AcDbEntity
  8
LAYER_1
 62
     7
  0
POLYLINE
  5
211
100
AcDbEntity
  8
LAYER_1
 62
     7
100
AcDb2dPolyline
 66
     1
 10
0.0
 20
0.0
 30
0.0
  0
VERTEX
  5
212
100
AcDbEntity
  8
LAYER_1
 62
     7
100
AcDbVertex
100
AcDb2dVertex
 10
75.094641
 20
211.103738
 30
0.0
  0
VERTEX
  5
213
100
AcDbEntity
  8
LAYER_1
 62
     7
100
AcDbVertex
100
AcDb2dVertex
 10
77.005636
 20
211.615507
 30
0.0
  0
VERTEX
  5
214
100
AcDbEntity
  8
LAYER_1
 62
     7
100
AcDbVertex
100
AcDb2dVertex
 10
75.094641
 20
212.127276
 30
0.0
  0
SEQEND
  5
215
100
AcDbEntity
  8
LAYER_1
 62
     7
  0
LINE
  5
210
100
AcDbEntity
  8
LAYER_1
 62
     7
100
AcDbLine
 10
145.215598
 20
109.449995
 30
0.0
 11
149.70938
 21
109.449995
 31
0.0
  0
POLYLINE
  5
20B
100
AcDbEntity
  8
LAYER_1
 62
     7
100
AcDb2dPolyline
 66
     1
 10
0.0
 20
0.0
 30
0.0
  0
VERTEX
  5
20C
100
AcDbEntity
  8
LAYER_1
 62
     7
100
AcDbVertex
100
AcDb2dVertex
 10
147.126592
 20
108.937709
 30
0.0
  0
VERTEX
  5
20D
100
AcDbEntity
  8
LAYER_1
 62
     7
100
AcDbVertex
100
AcDb2dVertex
 10
145.215598
 20
109.449995
 30
0.0
  0
VERTEX
  5
20E
100
AcDbEntity
  8
LAYER_1
 62
     7
100
AcDbVertex
100
AcDb2dVertex
 10
147.126592
 20
109.961936
 30
0.0
  0
SEQEND
  5
20F
100
AcDbEntity
  8
LAYER_1
 62
     7
  0
LINE
  5
20A
100
AcDbEntity
  8
LAYER_1
 62
     7
100
AcDbLine
 10
141.749487
 20
109.547146
 30
0.0
 11
137.25536
 21
109.547146
 31
0.0
  0
LINE
  5
209
100
AcDbEntity
  8
LAYER_1
 62
     7
100
AcDbLine
 10
173.305528
 20
129.499417
 30
0.0
 11
175.63269
 21
129.499417
 31
0.0
  0
LINE
  5
208
100
AcDbEntity
  8
LAYER_1
 62
     7
100
AcDbLine
 10
173.305528
 20
124.223598
 30
0.0
 11
175.63269
 21
124.223598
 31
0.0
  0
LINE
  5
207
100
AcDbEntity
  8
LAYER_1
 62
     7
100
AcDbLine
 10
173.305528
 20
118.947434
 30
0.0
 11
175.63269
 21
118.947434
 31
0.0
  0
POLYLINE
  5
202
100
AcDbEntity
  8
LAYER_1
 62
     7
100
AcDb2dPolyline
 66
     1
 10
0.0
 20
0.0
 30
0.0
  0
VERTEX
  5
203
100
AcDbEntity
  8
LAYER_1
 62
     7
100
AcDbVertex
100
AcDb2dVertex
 10
173.305528
 20
92.728535
 30
0.0
  0
VERTEX
  5
204
100
AcDbEntity
  8
LAYER_1
 62
     7
100
AcDbVertex
100
AcDb2dVertex
 10
173.305528
 20
134.928887
 30
0.0
  0
VERTEX
  5
205
100
AcDbEntity
  8
LAYER_1
 62
     7
100
AcDbVertex
100
AcDb2dVertex
 10
175.63269
 20
134.928887
 30
0.0
  0
SEQEND
  5
206
100
AcDbEntity
  8
LAYER_1
 62
     7
  0
LINE
  5
201
100
AcDbEntity
  8
LAYER_1
 62
     7
100
AcDbLine
 10
173.305528
 20
91.769076
 30
0.0
 11
173.305528
 21
92.728535
 31
0.0
  0
SPLINE
  5
200
100
AcDbEntity
  8
LAYER_1
 62
     7
100
AcDbSpline
210
0.0
220
0.0
230
1.0
 70
     8
 71
     3
 72
    17
 73
    13
 74
     0
 42
0.00000001
 43
0.00000001
 40
0.0
 40
0.0
 40
0.0
 40
0.0
 40
1.0
 40
1.0
 40
1.0
 40
2.0
 40
2.0
 40
2.0
 40
3.0
 40
3.0
 40
3.0
 40
4.0
 40
4.0
 40
4.0
 40
4.0
 10
138.87283257378471
 20
100.26054687499999
 30
0.0
 10
138.69127604166664
 20
100.26192491319443
 30
0.0
 10
138.54451497395831
 20
100.40868598090277
 30
0.0
 10
138.54313693576387
 20
100.59024251302083
 30
0.0
 10
138.63236490885416
 20
100.80900607638888
 30
0.0
 10
138.88041178385416
 20
100.9151150173611
 30
0.0
 10
139.10020887586805
 20
100.82898763020832
 30
0.0
 10
139.16497667100694
 20
100.76628689236111
 30
0.0
 10
139.20183919270832
 20
100.68015950520832
 30
0.0
 10
139.20252821180554
 20
100.59024251302083
 30
0.0
 10
139.20149468315972
 20
100.40868598090277
 30
0.0
 10
139.05438910590277
 20
100.26192491319443
 30
0.0
 10
138.87283257378471
 20
100.26054687499999
 30
0.0
  0
SPLINE
  5
1FF
100
AcDbEntity
  8
LAYER_1
 62
     7
100
AcDbSpline
210
0.0
220
0.0
230
1.0
 70
     8
 71
     3
 72
    17
 73
    13
 74
     0
 42
0.00000001
 43
0.00000001
 40
0.0
 40
0.0
 40
0.0
 40
0.0
 40
1.0
 40
1.0
 40
1.0
 40
2.0
 40
2.0
 40
2.0
 40
3.0
 40
3.0
 40
3.0
 40
4.0
 40
4.0
 40
4.0
 40
4.0
 10
143.13820529513887
 20
104.60343424479166
 30
0.0
 10
142.95664876302081
 20
104.6048122829861
 30
0.0
 10
142.80988769531248
 20
104.75191786024304
 30
0.0
 10
142.80850965711804
 20
104.93347439236111
 30
0.0
 10
142.89773763020833
 20
105.15189344618055
 30
0.0
 10
143.14612901475692
 20
105.25800238715277
 30
0.0
 10
143.36558159722222
 20
105.17187499999999
 30
0.0
 10
143.43034939236111
 20
105.10917426215276
 30
0.0
 10
143.46686740451386
 20
105.0233913845486
 30
0.0
 10
143.46790093315971
 20
104.93347439236111
 30
0.0
 10
143.46652289496527
 20
104.75191786024304
 30
0.0
 10
143.31976182725694
 20
104.6048122829861
 30
0.0
 10
143.13820529513887
 20
104.60343424479166
 30
0.0
  0
SPLINE
  5
1FE
100
AcDbEntity
  8
LAYER_1
 62
     7
100
AcDbSpline
210
0.0
220
0.0
230
1.0
 70
     8
 71
     3
 72
    17
 73
    13
 74
     0
 42
0.00000001
 43
0.00000001
 40
0.0
 40
0.0
 40
0.0
 40
0.0
 40
1.0
 40
1.0
 40
1.0
 40
2.0
 40
2.0
 40
2.0
 40
3.0
 40
3.0
 40
3.0
 40
4.0
 40
4.0
 40
4.0
 40
4.0
 10
173.30552842881943
 20
100.90064561631944
 30
0.0
 10
173.12397189670136
 20
100.90167914496527
 30
0.0
 10
172.97721082899304
 20
101.04878472222221
 30
0.0
 10
172.97583279079859
 20
101.23034125434027
 30
0.0
 10
173.06506076388888
 20
101.44876030815972
 30
0.0
 10
173.31310763888888
 20
101.55486924913194
 30
0.0
 10
173.53290473090277
 20
101.46874186197915
 30
0.0
 10
173.59767252604166
 20
101.40604112413193
 30
0.0
 10
173.63419053819442
 20
101.32025824652777
 30
0.0
 10
173.63522406684027
 20
101.23034125434027
 30
0.0
 10
173.63384602864582
 20
101.0484402126736
 30
0.0
 10
173.48708496093749
 20
100.90167914496527
 30
0.0
 10
173.30552842881943
 20
100.90064561631944
 30
0.0
  0
SPLINE
  5
1FD
100
AcDbEntity
  8
LAYER_1
 62
     7
100
AcDbSpline
210
0.0
220
0.0
230
1.0
 70
     8
 71
     3
 72
    17
 73
    13
 74
     0
 42
0.00000001
 43
0.00000001
 40
0.0
 40
0.0
 40
0.0
 40
0.0
 40
1.0
 40
1.0
 40
1.0
 40
2.0
 40
2.0
 40
2.0
 40
3.0
 40
3.0
 40
3.0
 40
4.0
 40
4.0
 40
4.0
 40
4.0
 10
173.30552842881943
 20
95.996552191840266
 30
0.0
 10
173.12397189670136
 20
95.998274739583323
 30
0.0
 10
172.97721082899304
 20
96.145035807291663
 30
0.0
 10
172.97583279079859
 20
96.326592339409714
 30
0.0
 10
173.06506076388888
 20
96.54501139322916
 30
0.0
 10
173.31310763888888
 20
96.65112033420138
 30
0.0
 10
173.53290473090277
 20
96.564992947048609
 30
0.0
 10
173.59767252604166
 20
96.502292209201386
 30
0.0
 10
173.63419053819442
 20
96.416509331597211
 30
0.0
 10
173.63522406684027
 20
96.326592339409714
 30
0.0
 10
173.63384602864582
 20
96.145035807291663
 30
0.0
 10
173.48708496093749
 20
95.997930230034711
 30
0.0
 10
173.30552842881943
 20
95.996552191840266
 30
0.0
  0
SPLINE
  5
1FC
100
AcDbEntity
  8
LAYER_1
 62
     7
100
AcDbSpline
210
0.0
220
0.0
230
1.0
 70
     8
 71
     3
 72
    17
 73
    13
 74
     0
 42
0.00000001
 43
0.00000001
 40
0.0
 40
0.0
 40
0.0
 40
0.0
 40
1.0
 40
1.0
 40
1.0
 40
2.0
 40
2.0
 40
2.0
 40
3.0
 40
3.0
 40
3.0
 40
4.0
 40
4.0
 40
4.0
 40
4.0
 10
173.30552842881943
 20
93.746215820312486
 30
0.0
 10
173.12397189670136
 20
93.747593858506931
 30
0.0
 10
172.97721082899304
 20
93.894699435763883
 30
0.0
 10
172.97583279079859
 20
94.075911458333323
 30
0.0
 10
173.06506076388888
 20
94.294330512152769
 30
0.0
 10
173.31310763888888
 20
94.4007839626736
 30
0.0
 10
173.53290473090277
 20
94.314656575520829
 30
0.0
 10
173.59767252604166
 20
94.251955837673606
 30
0.0
 10
173.63419053819442
 20
94.166172960069431
 30
0.0
 10
173.63522406684027
 20
94.075911458333323
 30
0.0
 10
173.63384602864582
 20
93.894354926215271
 30
0.0
 10
173.48708496093749
 20
93.747593858506931
 30
0.0
 10
173.30552842881943
 20
93.746215820312486
 30
0.0
  0
SPLINE
  5
1FB
100
AcDbEntity
  8
LAYER_1
 62
     7
100
AcDbSpline
210
0.0
220
0.0
230
1.0
 70
     8
 71
     3
 72
    20
 73
    16
 74
     0
 42
0.00000001
 43
0.00000001
 40
0.0
 40
0.0
 40
0.0
 40
0.0
 40
1.0
 40
1.0
 40
1.0
 40
2.0
 40
2.0
 40
2.0
 40
3.0
 40
3.0
 40
3.0
 40
4.0
 40
4.0
 40
4.0
 40
5.0
 40
5.0
 40
5.0
 40
5.0
 10
173.30552842881943
 20
91.109339735243054
 30
0.0
 10
173.12362738715277
 20
91.110717773437486
 30
0.0
 10
172.97686631944444
 20
91.257478841145826
 30
0.0
 10
172.97583279079859
 20
91.439035373263877
 30
0.0
 10
173.06506076388888
 20
91.657798936631934
 30
0.0
 10
173.31310763888888
 20
91.763907877604154
 30
0.0
 10
173.53290473090277
 20
91.677780490451383
 30
0.0
 10
173.59767252604166
 20
91.61507975260416
 30
0.0
 10
173.63419053819442
 20
91.529296874999986
 30
0.0
 10
173.63522406684027
 20
91.439035373263877
 30
0.0
 10
173.63522406684027
 20
91.351874457465271
 30
0.0
 10
173.60042860243053
 20
91.267814127604154
 30
0.0
 10
173.53876139322915
 20
91.205802408854154
 30
0.0
 10
173.47674967447915
 20
91.144135199652766
 30
0.0
 10
173.39268934461805
 20
91.109339735243054
 30
0.0
 10
173.30552842881943
 20
91.109339735243054
 30
0.0
  0
POLYLINE
  5
1F6
100
AcDbEntity
  8
LAYER_1
 62
     7
100
AcDb2dPolyline
 66
     1
 10
0.0
 20
0.0
 30
0.0
  0
VERTEX
  5
1F7
100
AcDbEntity
  8
LAYER_1
 62
     7
100
AcDbVertex
100
AcDb2dVertex
 10
78.215209
 20
168.811918
 30
0.0
  0
VERTEX
  5
1F8
100
AcDbEntity
  8
LAYER_1
 62
     7
100
AcDbVertex
100
AcDb2dVertex
 10
88.495546
 20
185.568174
 30
0.0
  0
VERTEX
  5
1F9
100
AcDbEntity
  8
LAYER_1
 62
     7
100
AcDbVertex
100
AcDb2dVertex
 10
90.744849
 20
185.568174
 30
0.0
  0
SEQEND
  5
1FA
100
AcDbEntity
  8
LAYER_1
 62
     7
  0
POLYLINE
  5
1F1
100
AcDbEntity
  8
LAYER_1
 62
     7
100
AcDb2dPolyline
 66
     1
 10
0.0
 20
0.0
 30
0.0
  0
VERTEX
  5
1F2
100
AcDbEntity
  8
LAYER_1
 62
     7
100
AcDbVertex
100
AcDb2dVertex
 10
65.227371
 20
160.756079
 30
0.0
  0
VERTEX
  5
1F3
100
AcDbEntity
  8
LAYER_1
 62
     7
100
AcDbVertex
100
AcDb2dVertex
 10
59.082871
 20
171.775217
 30
0.0
  0
VERTEX
  5
1F4
100
AcDbEntity
  8
LAYER_1
 62
     7
100
AcDbVertex
100
AcDb2dVertex
 10
50.094444
 20
171.775217
 30
0.0
  0
SEQEND
  5
1F5
100
AcDbEntity
  8
LAYER_1
 62
     7
  0
POLYLINE
  5
1EC
100
AcDbEntity
  8
LAYER_1
 62
     7
100
AcDb2dPolyline
 66
     1
 10
0.0
 20
0.0
 30
0.0
  0
VERTEX
  5
1ED
100
AcDbEntity
  8
LAYER_1
 62
     7
100
AcDbVertex
100
AcDb2dVertex
 10
66.091401
 20
162.147036
 30
0.0
  0
VERTEX
  5
1EE
100
AcDbEntity
  8
LAYER_1
 62
     7
100
AcDbVertex
100
AcDb2dVertex
 10
50.968982
 20
188.683573
 30
0.0
  0
VERTEX
  5
1EF
100
AcDbEntity
  8
LAYER_1
 62
     7
100
AcDbVertex
100
AcDb2dVertex
 10
48.719679
 20
188.683573
 30
0.0
  0
SEQEND
  5
1F0
100
AcDbEntity
  8
LAYER_1
 62
     7
  0
SPLINE
  5
1EB
100
AcDbEntity
  8
LAYER_1
 62
     7
100
AcDbSpline
210
0.0
220
0.0
230
1.0
 70
     8
 71
     3
 72
    17
 73
    13
 74
     0
 42
0.00000001
 43
0.00000001
 40
0.0
 40
0.0
 40
0.0
 40
0.0
 40
1.0
 40
1.0
 40
1.0
 40
2.0
 40
2.0
 40
2.0
 40
3.0
 40
3.0
 40
3.0
 40
4.0
 40
4.0
 40
4.0
 40
4.0
 10
66.1389431423611
 20
161.77169325086805
 30
0.0
 10
65.941022406684027
 20
161.7732435438368
 30
0.0
 10
65.780997721354154
 20
161.93326822916666
 30
0.0
 10
65.779619683159723
 20
162.13118896484374
 30
0.0
 10
65.871775987413187
 20
162.36924506293403
 30
0.0
 10
66.138254123263877
 20
162.48896213107636
 30
0.0
 10
66.377516004774293
 20
162.4000786675347
 30
0.0
 10
66.453652615017361
 20
162.3313490125868
 30
0.0
 10
66.497577582465269
 20
162.23385281032984
 30
0.0
 10
66.498438856336804
 20
162.13118896484374
 30
0.0
 10
66.496888563368046
 20
161.93326822916666
 30
0.0
 10
66.336863878038187
 20
161.7732435438368
 30
0.0
 10
66.1389431423611
 20
161.77169325086805
 30
0.0
  0
POLYLINE
  5
1E6
100
AcDbEntity
  8
LAYER_1
 62
     7
100
AcDb2dPolyline
 66
     1
 10
0.0
 20
0.0
 30
0.0
  0
VERTEX
  5
1E7
100
AcDbEntity
  8
LAYER_1
 62
     7
100
AcDbVertex
100
AcDb2dVertex
 10
66.091401
 20
181.690202
 30
0.0
  0
VERTEX
  5
1E8
100
AcDbEntity
  8
LAYER_1
 62
     7
100
AcDbVertex
100
AcDb2dVertex
 10
57.357395
 20
197.059117
 30
0.0
  0
VERTEX
  5
1E9
100
AcDbEntity
  8
LAYER_1
 62
     7
100
AcDbVertex
100
AcDb2dVertex
 10
50.623611
 20
197.059117
 30
0.0
  0
SEQEND
  5
1EA
100
AcDbEntity
  8
LAYER_1
 62
     7
  0
SPLINE
  5
1E5
100
AcDbEntity
  8
LAYER_1
 62
     7
100
AcDbSpline
210
0.0
220
0.0
230
1.0
 70
     8
 71
     3
 72
    17
 73
    13
 74
     0
 42
0.00000001
 43
0.00000001
 40
0.0
 40
0.0
 40
0.0
 40
0.0
 40
1.0
 40
1.0
 40
1.0
 40
2.0
 40
2.0
 40
2.0
 40
3.0
 40
3.0
 40
3.0
 40
4.0
 40
4.0
 40
4.0
 40
4.0
 10
66.1389431423611
 20
181.31485866970485
 30
0.0
 10
65.941022406684027
 20
181.31623670789929
 30
0.0
 10
65.780997721354154
 20
181.47626139322915
 30
0.0
 10
65.779619683159723
 20
181.67435438368054
 30
0.0
 10
65.871775987413187
 20
181.91223822699652
 30
0.0
 10
66.138254123263877
 20
182.03195529513889
 30
0.0
 10
66.377516004774293
 20
181.94324408637152
 30
0.0
 10
66.453652615017361
 20
181.87434217664929
 30
0.0
 10
66.497577582465269
 20
181.77684597439236
 30
0.0
 10
66.498438856336804
 20
181.67435438368054
 30
0.0
 10
66.496888563368046
 20
181.47626139322915
 30
0.0
 10
66.336863878038187
 20
181.31623670789929
 30
0.0
 10
66.1389431423611
 20
181.31485866970485
 30
0.0
  0
POLYLINE
  5
1E0
100
AcDbEntity
  8
LAYER_1
 62
     7
100
AcDb2dPolyline
 66
     1
 10
0.0
 20
0.0
 30
0.0
  0
VERTEX
  5
1E1
100
AcDbEntity
  8
LAYER_1
 62
     7
100
AcDbVertex
100
AcDb2dVertex
 10
76.095614
 20
171.448622
 30
0.0
  0
VERTEX
  5
1E2
100
AcDbEntity
  8
LAYER_1
 62
     7
100
AcDbVertex
100
AcDb2dVertex
 10
88.619397
 20
192.868848
 30
0.0
  0
VERTEX
  5
1E3
100
AcDbEntity
  8
LAYER_1
 62
     7
100
AcDbVertex
100
AcDb2dVertex
 10
90.868872
 20
192.868848
 30
0.0
  0
SEQEND
  5
1E4
100
AcDbEntity
  8
LAYER_1
 62
     7
  0
SPLINE
  5
1DF
100
AcDbEntity
  8
LAYER_1
 62
     7
100
AcDbSpline
210
0.0
220
0.0
230
1.0
 70
     8
 71
     3
 72
    17
 73
    13
 74
     0
 42
0.00000001
 43
0.00000001
 40
0.0
 40
0.0
 40
0.0
 40
0.0
 40
1.0
 40
1.0
 40
1.0
 40
2.0
 40
2.0
 40
2.0
 40
3.0
 40
3.0
 40
3.0
 40
4.0
 40
4.0
 40
4.0
 40
4.0
 10
75.974690755208329
 20
171.17956000434026
 30
0.0
 10
76.050827365451383
 20
171.24828965928819
 30
0.0
 10
76.094752332899304
 20
171.34595811631942
 30
0.0
 10
76.095613606770826
 20
171.44862196180554
 30
0.0
 10
76.09423556857638
 20
171.64654269748263
 30
0.0
 10
75.934038628472209
 20
171.80656738281249
 30
0.0
 10
75.736117892795136
 20
171.80794542100693
 30
0.0
 10
75.538197157118049
 20
171.80656738281249
 30
0.0
 10
75.37817247178819
 20
171.64637044270833
 30
0.0
 10
75.376794433593744
 20
171.44862196180554
 30
0.0
 10
75.468950737847209
 20
171.21056586371526
 30
0.0
 10
75.7352566189236
 20
171.0906765407986
 30
0.0
 10
75.974690755208329
 20
171.17956000434026
 30
0.0
  0
POLYLINE
  5
1DA
100
AcDbEntity
  8
LAYER_1
 62
     7
100
AcDb2dPolyline
 66
     1
 10
0.0
 20
0.0
 30
0.0
  0
VERTEX
  5
1DB
100
AcDbEntity
  8
LAYER_1
 62
     7
100
AcDbVertex
100
AcDb2dVertex
 10
76.878856
 20
175.332278
 30
0.0
  0
VERTEX
  5
1DC
100
AcDbEntity
  8
LAYER_1
 62
     7
100
AcDbVertex
100
AcDb2dVertex
 10
90.112329
 20
199.45053
 30
0.0
  0
VERTEX
  5
1DD
100
AcDbEntity
  8
LAYER_1
 62
     7
100
AcDbVertex
100
AcDb2dVertex
 10
92.361632
 20
199.45053
 30
0.0
  0
SEQEND
  5
1DE
100
AcDbEntity
  8
LAYER_1
 62
     7
  0
SPLINE
  5
1D9
100
AcDbEntity
  8
LAYER_1
 62
     7
100
AcDbSpline
210
0.0
220
0.0
230
1.0
 70
     8
 71
     3
 72
    17
 73
    13
 74
     0
 42
0.00000001
 43
0.00000001
 40
0.0
 40
0.0
 40
0.0
 40
0.0
 40
1.0
 40
1.0
 40
1.0
 40
2.0
 40
2.0
 40
2.0
 40
3.0
 40
3.0
 40
3.0
 40
4.0
 40
4.0
 40
4.0
 40
4.0
 10
77.069714355468747
 20
175.04754096137151
 30
0.0
 10
77.145850965711801
 20
175.11627061631944
 30
0.0
 10
77.18960367838541
 20
175.21393907335067
 30
0.0
 10
77.190637207031244
 20
175.31643066406249
 30
0.0
 10
77.1890869140625
 20
175.51435139973958
 30
0.0
 10
77.029062228732627
 20
175.67454833984374
 30
0.0
 10
76.831141493055554
 20
175.67592637803818
 30
0.0
 10
76.633220757378467
 20
175.67454833984374
 30
0.0
 10
76.473196072048609
 20
175.51435139973958
 30
0.0
 10
76.471818033854163
 20
175.31643066406249
 30
0.0
 10
76.563974338107627
 20
175.07837456597221
 30
0.0
 10
76.830452473958331
 20
174.95865749782985
 30
0.0
 10
77.069714355468747
 20
175.04754096137151
 30
0.0
  0
POLYLINE
  5
1D4
100
AcDbEntity
  8
LAYER_1
 62
     7
100
AcDb2dPolyline
 66
     1
 10
0.0
 20
0.0
 30
0.0
  0
VERTEX
  5
1D5
100
AcDbEntity
  8
LAYER_1
 62
     7
100
AcDbVertex
100
AcDb2dVertex
 10
54.669531
 20
207.349962
 30
0.0
  0
VERTEX
  5
1D6
100
AcDbEntity
  8
LAYER_1
 62
     7
100
AcDbVertex
100
AcDb2dVertex
 10
60.642121
 20
218.013911
 30
0.0
  0
VERTEX
  5
1D7
100
AcDbEntity
  8
LAYER_1
 62
     7
100
AcDbVertex
100
AcDb2dVertex
 10
62.891424
 20
218.013911
 30
0.0
  0
SEQEND
  5
1D8
100
AcDbEntity
  8
LAYER_1
 62
     7
  0
SPLINE
  5
1D3
100
AcDbEntity
  8
LAYER_1
 62
     7
100
AcDbSpline
210
0.0
220
0.0
230
1.0
 70
     8
 71
     3
 72
    17
 73
    13
 74
     0
 42
0.00000001
 43
0.00000001
 40
0.0
 40
0.0
 40
0.0
 40
0.0
 40
1.0
 40
1.0
 40
1.0
 40
2.0
 40
2.0
 40
2.0
 40
3.0
 40
3.0
 40
3.0
 40
4.0
 40
4.0
 40
4.0
 40
4.0
 10
54.860389539930551
 20
207.06505262586805
 30
0.0
 10
54.936526150173606
 20
207.13395453559025
 30
0.0
 10
54.98045111762152
 20
207.23145073784721
 30
0.0
 10
54.981312391493049
 20
207.3341145833333
 30
0.0
 10
54.980106608072909
 20
207.53220757378472
 30
0.0
 10
54.819909667968744
 20
207.69274902343747
 30
0.0
 10
54.621816677517359
 20
207.69412706163192
 30
0.0
 10
54.423723687065966
 20
207.69257676866317
 30
0.0
 10
54.263526746961801
 20
207.53220757378472
 30
0.0
 10
54.262320963541661
 20
207.3341145833333
 30
0.0
 10
54.354649522569439
 20
207.09605848524305
 30
0.0
 10
54.62095540364583
 20
206.97616916232636
 30
0.0
 10
54.860389539930551
 20
207.06505262586805
 30
0.0
  0
POLYLINE
  5
1CE
100
AcDbEntity
  8
LAYER_1
 62
     7
100
AcDb2dPolyline
 66
     1
 10
0.0
 20
0.0
 30
0.0
  0
VERTEX
  5
1CF
100
AcDbEntity
  8
LAYER_1
 62
     7
100
AcDbVertex
100
AcDb2dVertex
 10
75.024017
 20
133.8206
 30
0.0
  0
VERTEX
  5
1D0
100
AcDbEntity
  8
LAYER_1
 62
     7
100
AcDbVertex
100
AcDb2dVertex
 10
89.926294
 20
156.005637
 30
0.0
  0
VERTEX
  5
1D1
100
AcDbEntity
  8
LAYER_1
 62
     7
100
AcDbVertex
100
AcDb2dVertex
 10
92.175769
 20
156.005637
 30
0.0
  0
SEQEND
  5
1D2
100
AcDbEntity
  8
LAYER_1
 62
     7
  0
SPLINE
  5
1CD
100
AcDbEntity
  8
LAYER_1
 62
     7
100
AcDbSpline
210
0.0
220
0.0
230
1.0
 70
     8
 71
     3
 72
    17
 73
    13
 74
     0
 42
0.00000001
 43
0.00000001
 40
0.0
 40
0.0
 40
0.0
 40
0.0
 40
1.0
 40
1.0
 40
1.0
 40
2.0
 40
2.0
 40
2.0
 40
3.0
 40
3.0
 40
3.0
 40
4.0
 40
4.0
 40
4.0
 40
4.0
 10
74.871226671006937
 20
133.3717041015625
 30
0.0
 10
74.947535536024304
 20
133.4402615017361
 30
0.0
 10
74.991288248697913
 20
133.53810221354166
 30
0.0
 10
74.992149522569434
 20
133.64042154947916
 30
0.0
 10
74.990771484374989
 20
133.83851453993054
 30
0.0
 10
74.83074679904513
 20
133.9983669704861
 30
0.0
 10
74.632826063368043
 20
134.00008951822915
 30
0.0
 10
74.43490532769097
 20
133.9983669704861
 30
0.0
 10
74.274880642361111
 20
133.83851453993054
 30
0.0
 10
74.273330349392353
 20
133.64042154947916
 30
0.0
 10
74.36565890842013
 20
133.4027099609375
 30
0.0
 10
74.631964789496521
 20
133.28282063802081
 30
0.0
 10
74.871226671006937
 20
133.3717041015625
 30
0.0
  0
POLYLINE
  5
1C8
100
AcDbEntity
  8
LAYER_1
 62
     7
100
AcDb2dPolyline
 66
     1
 10
0.0
 20
0.0
 30
0.0
  0
VERTEX
  5
1C9
100
AcDbEntity
  8
LAYER_1
 62
     7
100
AcDbVertex
100
AcDb2dVertex
 10
68.087145
 20
105.253179
 30
0.0
  0
VERTEX
  5
1CA
100
AcDbEntity
  8
LAYER_1
 62
     7
100
AcDbVertex
100
AcDb2dVertex
 10
86.767141
 20
137.693921
 30
0.0
  0
VERTEX
  5
1CB
100
AcDbEntity
  8
LAYER_1
 62
     7
100
AcDbVertex
100
AcDb2dVertex
 10
89.016616
 20
137.693921
 30
0.0
  0
SEQEND
  5
1CC
100
AcDbEntity
  8
LAYER_1
 62
     7
  0
POLYLINE
  5
1C3
100
AcDbEntity
  8
LAYER_1
 62
     7
100
AcDb2dPolyline
 66
     1
 10
0.0
 20
0.0
 30
0.0
  0
VERTEX
  5
1C4
100
AcDbEntity
  8
LAYER_1
 62
     7
100
AcDbVertex
100
AcDb2dVertex
 10
74.991461
 20
104.353665
 30
0.0
  0
VERTEX
  5
1C5
100
AcDbEntity
  8
LAYER_1
 62
     7
100
AcDbVertex
100
AcDb2dVertex
 10
88.738942
 20
123.518042
 30
0.0
  0
VERTEX
  5
1C6
100
AcDbEntity
  8
LAYER_1
 62
     7
100
AcDbVertex
100
AcDb2dVertex
 10
90.988417
 20
123.518042
 30
0.0
  0
SEQEND
  5
1C7
100
AcDbEntity
  8
LAYER_1
 62
     7
  0
POLYLINE
  5
1BE
100
AcDbEntity
  8
LAYER_1
 62
     7
100
AcDb2dPolyline
 66
     1
 10
0.0
 20
0.0
 30
0.0
  0
VERTEX
  5
1BF
100
AcDbEntity
  8
LAYER_1
 62
     7
100
AcDbVertex
100
AcDb2dVertex
 10
76.918991
 20
109.402797
 30
0.0
  0
VERTEX
  5
1C0
100
AcDbEntity
  8
LAYER_1
 62
     7
100
AcDbVertex
100
AcDb2dVertex
 10
90.134894
 20
128.491382
 30
0.0
  0
VERTEX
  5
1C1
100
AcDbEntity
  8
LAYER_1
 62
     7
100
AcDbVertex
100
AcDb2dVertex
 10
92.384197
 20
128.491382
 30
0.0
  0
SEQEND
  5
1C2
100
AcDbEntity
  8
LAYER_1
 62
     7
  0
LINE
  5
1BD
100
AcDbEntity
  8
LAYER_1
 62
     7
100
AcDbLine
 10
74.565302
 20
84.620158
 30
0.0
 11
78.525267
 21
84.620158
 31
0.0
  0
POLYLINE
  5
1B8
100
AcDbEntity
  8
LAYER_1
 62
     7
100
AcDb2dPolyline
 66
     1
 10
0.0
 20
0.0
 30
0.0
  0
VERTEX
  5
1B9
100
AcDbEntity
  8
LAYER_1
 62
     7
100
AcDbVertex
100
AcDb2dVertex
 10
118.507495
 20
104.553825
 30
0.0
  0
VERTEX
  5
1BA
100
AcDbEntity
  8
LAYER_1
 62
     7
100
AcDbVertex
100
AcDb2dVertex
 10
119.019436
 20
106.464819
 30
0.0
  0
VERTEX
  5
1BB
100
AcDbEntity
  8
LAYER_1
 62
     7
100
AcDbVertex
100
AcDb2dVertex
 10
119.531722
 20
104.553825
 30
0.0
  0
SEQEND
  5
1BC
100
AcDbEntity
  8
LAYER_1
 62
     7
  0
POLYLINE
  5
1B3
100
AcDbEntity
  8
LAYER_1
 62
     7
100
AcDb2dPolyline
 66
     1
 10
0.0
 20
0.0
 30
0.0
  0
VERTEX
  5
1B4
100
AcDbEntity
  8
LAYER_1
 62
     7
100
AcDbVertex
100
AcDb2dVertex
 10
118.51094
 20
97.801782
 30
0.0
  0
VERTEX
  5
1B5
100
AcDbEntity
  8
LAYER_1
 62
     7
100
AcDbVertex
100
AcDb2dVertex
 10
119.023226
 20
95.890788
 30
0.0
  0
VERTEX
  5
1B6
100
AcDbEntity
  8
LAYER_1
 62
     7
100
AcDbVertex
100
AcDb2dVertex
 10
119.535167
 20
97.801782
 30
0.0
  0
SEQEND
  5
1B7
100
AcDbEntity
  8
LAYER_1
 62
     7
  0
POLYLINE
  5
1AE
100
AcDbEntity
  8
LAYER_1
 62
     7
100
AcDb2dPolyline
 66
     1
 10
0.0
 20
0.0
 30
0.0
  0
VERTEX
  5
1AF
100
AcDbEntity
  8
LAYER_1
 62
     7
100
AcDbVertex
100
AcDb2dVertex
 10
84.819112
 20
99.7176
 30
0.0
  0
VERTEX
  5
1B0
100
AcDbEntity
  8
LAYER_1
 62
     7
100
AcDbVertex
100
AcDb2dVertex
 10
85.331053
 20
101.628939
 30
0.0
  0
VERTEX
  5
1B1
100
AcDbEntity
  8
LAYER_1
 62
     7
100
AcDbVertex
100
AcDb2dVertex
 10
85.843167
 20
99.7176
 30
0.0
  0
SEQEND
  5
1B2
100
AcDbEntity
  8
LAYER_1
 62
     7
  0
POLYLINE
  5
1A9
100
AcDbEntity
  8
LAYER_1
 62
     7
100
AcDb2dPolyline
 66
     1
 10
0.0
 20
0.0
 30
0.0
  0
VERTEX
  5
1AA
100
AcDbEntity
  8
LAYER_1
 62
     7
100
AcDbVertex
100
AcDb2dVertex
 10
84.849773
 20
108.530843
 30
0.0
  0
VERTEX
  5
1AB
100
AcDbEntity
  8
LAYER_1
 62
     7
100
AcDbVertex
100
AcDb2dVertex
 10
85.361887
 20
106.619849
 30
0.0
  0
VERTEX
  5
1AC
100
AcDbEntity
  8
LAYER_1
 62
     7
100
AcDbVertex
100
AcDb2dVertex
 10
85.874
 20
108.530843
 30
0.0
  0
SEQEND
  5
1AD
100
AcDbEntity
  8
LAYER_1
 62
     7
  0
POLYLINE
  5
1A4
100
AcDbEntity
  8
LAYER_1
 62
     7
100
AcDb2dPolyline
 66
     1
 10
0.0
 20
0.0
 30
0.0
  0
VERTEX
  5
1A5
100
AcDbEntity
  8
LAYER_1
 62
     7
100
AcDbVertex
100
AcDb2dVertex
 10
68.762211
 20
75.990538
 30
0.0
  0
VERTEX
  5
1A6
100
AcDbEntity
  8
LAYER_1
 62
     7
100
AcDbVertex
100
AcDb2dVertex
 10
66.851044
 20
76.502824
 30
0.0
  0
VERTEX
  5
1A7
100
AcDbEntity
  8
LAYER_1
 62
     7
100
AcDbVertex
100
AcDb2dVertex
 10
68.762211
 20
77.014765
 30
0.0
  0
SEQEND
  5
1A8
100
AcDbEntity
  8
LAYER_1
 62
     7
  0
POLYLINE
  5
19F
100
AcDbEntity
  8
LAYER_1
 62
     7
100
AcDb2dPolyline
 66
     1
 10
0.0
 20
0.0
 30
0.0
  0
VERTEX
  5
1A0
100
AcDbEntity
  8
LAYER_1
 62
     7
100
AcDbVertex
100
AcDb2dVertex
 10
43.262131
 20
153.375823
 30
0.0
  0
VERTEX
  5
1A1
100
AcDbEntity
  8
LAYER_1
 62
     7
100
AcDbVertex
100
AcDb2dVertex
 10
41.350964
 20
153.887937
 30
0.0
  0
VERTEX
  5
1A2
100
AcDbEntity
  8
LAYER_1
 62
     7
100
AcDbVertex
100
AcDb2dVertex
 10
43.262131
 20
154.399878
 30
0.0
  0
SEQEND
  5
1A3
100
AcDbEntity
  8
LAYER_1
 62
     7
  0
POLYLINE
  5
19A
100
AcDbEntity
  8
LAYER_1
 62
     7
100
AcDb2dPolyline
 66
     1
 10
0.0
 20
0.0
 30
0.0
  0
VERTEX
  5
19B
100
AcDbEntity
  8
LAYER_1
 62
     7
100
AcDbVertex
100
AcDb2dVertex
 10
36.531793
 20
153.492268
 30
0.0
  0
VERTEX
  5
19C
100
AcDbEntity
  8
LAYER_1
 62
     7
100
AcDbVertex
100
AcDb2dVertex
 10
38.442787
 20
154.004209
 30
0.0
  0
VERTEX
  5
19D
100
AcDbEntity
  8
LAYER_1
 62
     7
100
AcDbVertex
100
AcDb2dVertex
 10
36.531793
 20
154.51615
 30
0.0
  0
SEQEND
  5
19E
100
AcDbEntity
  8
LAYER_1
 62
     7
  0
POLYLINE
  5
195
100
AcDbEntity
  8
LAYER_1
 62
     7
100
AcDb2dPolyline
 66
     1
 10
0.0
 20
0.0
 30
0.0
  0
VERTEX
  5
196
100
AcDbEntity
  8
LAYER_1
 62
     7
100
AcDbVertex
100
AcDb2dVertex
 10
63.026816
 20
153.432151
 30
0.0
  0
VERTEX
  5
197
100
AcDbEntity
  8
LAYER_1
 62
     7
100
AcDbVertex
100
AcDb2dVertex
 10
64.937983
 20
153.944436
 30
0.0
  0
VERTEX
  5
198
100
AcDbEntity
  8
LAYER_1
 62
     7
100
AcDbVertex
100
AcDb2dVertex
 10
63.026816
 20
154.456205
 30
0.0
  0
SEQEND
  5
199
100
AcDbEntity
  8
LAYER_1
 62
     7
  0
POLYLINE
  5
190
100
AcDbEntity
  8
LAYER_1
 62
     7
100
AcDb2dPolyline
 66
     1
 10
0.0
 20
0.0
 30
0.0
  0
VERTEX
  5
191
100
AcDbEntity
  8
LAYER_1
 62
     7
100
AcDbVertex
100
AcDb2dVertex
 10
76.476469
 20
84.108217
 30
0.0
  0
VERTEX
  5
192
100
AcDbEntity
  8
LAYER_1
 62
     7
100
AcDbVertex
100
AcDb2dVertex
 10
74.565302
 20
84.620158
 30
0.0
  0
VERTEX
  5
193
100
AcDbEntity
  8
LAYER_1
 62
     7
100
AcDbVertex
100
AcDb2dVertex
 10
76.476469
 20
85.132444
 30
0.0
  0
SEQEND
  5
194
100
AcDbEntity
  8
LAYER_1
 62
     7
  0
LINE
  5
18F
100
AcDbEntity
  8
LAYER_1
 62
     7
100
AcDbLine
 10
66.940961
 20
84.620158
 30
0.0
 11
62.980996
 21
84.620158
 31
0.0
  0
LINE
  5
18E
100
AcDbEntity
  8
LAYER_1
 62
     7
100
AcDbLine
 10
85.322613
 20
101.668213
 30
0.0
 11
85.322613
 21
97.080724
 31
0.0
  0
POLYLINE
  5
189
100
AcDbEntity
  8
LAYER_1
 62
     7
100
AcDb2dPolyline
 66
     1
 10
0.0
 20
0.0
 30
0.0
  0
VERTEX
  5
18A
100
AcDbEntity
  8
LAYER_1
 62
     7
100
AcDbVertex
100
AcDb2dVertex
 10
81.488222
 20
203.676457
 30
0.0
  0
VERTEX
  5
18B
100
AcDbEntity
  8
LAYER_1
 62
     7
100
AcDbVertex
100
AcDb2dVertex
 10
80.976108
 20
205.587796
 30
0.0
  0
VERTEX
  5
18C
100
AcDbEntity
  8
LAYER_1
 62
     7
100
AcDbVertex
100
AcDb2dVertex
 10
80.464167
 20
203.676457
 30
0.0
  0
SEQEND
  5
18D
100
AcDbEntity
  8
LAYER_1
 62
     7
  0
POLYLINE
  5
184
100
AcDbEntity
  8
LAYER_1
 62
     7
100
AcDb2dPolyline
 66
     1
 10
0.0
 20
0.0
 30
0.0
  0
VERTEX
  5
185
100
AcDbEntity
  8
LAYER_1
 62
     7
100
AcDbVertex
100
AcDb2dVertex
 10
80.448664
 20
184.834885
 30
0.0
  0
VERTEX
  5
186
100
AcDbEntity
  8
LAYER_1
 62
     7
100
AcDbVertex
100
AcDb2dVertex
 10
80.960777
 20
182.923546
 30
0.0
  0
VERTEX
  5
187
100
AcDbEntity
  8
LAYER_1
 62
     7
100
AcDbVertex
100
AcDb2dVertex
 10
81.472891
 20
184.834885
 30
0.0
  0
SEQEND
  5
188
100
AcDbEntity
  8
LAYER_1
 62
     7
  0
POLYLINE
  5
17F
100
AcDbEntity
  8
LAYER_1
 62
     7
100
AcDb2dPolyline
 66
     1
 10
0.0
 20
0.0
 30
0.0
  0
VERTEX
  5
180
100
AcDbEntity
  8
LAYER_1
 62
     7
100
AcDbVertex
100
AcDb2dVertex
 10
80.472435
 20
210.756817
 30
0.0
  0
VERTEX
  5
181
100
AcDbEntity
  8
LAYER_1
 62
     7
100
AcDbVertex
100
AcDb2dVertex
 10
80.984376
 20
208.84565
 30
0.0
  0
VERTEX
  5
182
100
AcDbEntity
  8
LAYER_1
 62
     7
100
AcDbVertex
100
AcDb2dVertex
 10
81.49649
 20
210.756817
 30
0.0
  0
SEQEND
  5
183
100
AcDbEntity
  8
LAYER_1
 62
     7
  0
POLYLINE
  5
17A
100
AcDbEntity
  8
LAYER_1
 62
     7
100
AcDb2dPolyline
 66
     1
 10
0.0
 20
0.0
 30
0.0
  0
VERTEX
  5
17B
100
AcDbEntity
  8
LAYER_1
 62
     7
100
AcDbVertex
100
AcDb2dVertex
 10
92.594348
 20
163.944515
 30
0.0
  0
VERTEX
  5
17C
100
AcDbEntity
  8
LAYER_1
 62
     7
100
AcDbVertex
100
AcDb2dVertex
 10
92.082235
 20
165.855682
 30
0.0
  0
VERTEX
  5
17D
100
AcDbEntity
  8
LAYER_1
 62
     7
100
AcDbVertex
100
AcDb2dVertex
 10
91.570121
 20
163.944515
 30
0.0
  0
SEQEND
  5
17E
100
AcDbEntity
  8
LAYER_1
 62
     7
  0
POLYLINE
  5
175
100
AcDbEntity
  8
LAYER_1
 62
     7
100
AcDb2dPolyline
 66
     1
 10
0.0
 20
0.0
 30
0.0
  0
VERTEX
  5
176
100
AcDbEntity
  8
LAYER_1
 62
     7
100
AcDbVertex
100
AcDb2dVertex
 10
91.537737
 20
170.059387
 30
0.0
  0
VERTEX
  5
177
100
AcDbEntity
  8
LAYER_1
 62
     7
100
AcDbVertex
100
AcDb2dVertex
 10
92.049851
 20
168.148393
 30
0.0
  0
VERTEX
  5
178
100
AcDbEntity
  8
LAYER_1
 62
     7
100
AcDbVertex
100
AcDb2dVertex
 10
92.561792
 20
170.059387
 30
0.0
  0
SEQEND
  5
179
100
AcDbEntity
  8
LAYER_1
 62
     7
  0
LINE
  5
174
100
AcDbEntity
  8
LAYER_1
 62
     7
100
AcDbLine
 10
92.076206
 20
180.637553
 30
0.0
 11
92.076206
 21
159.180981
 31
0.0
  0
LINE
  5
173
100
AcDbEntity
  8
LAYER_1
 62
     7
100
AcDbLine
 10
77.611111
 20
168.18026
 30
0.0
 11
158.726229
 21
168.18026
 31
0.0
  0
POLYLINE
  5
16E
100
AcDbEntity
  8
LAYER_1
 62
     7
100
AcDb2dPolyline
 66
     1
 10
0.0
 20
0.0
 30
0.0
  0
VERTEX
  5
16F
100
AcDbEntity
  8
LAYER_1
 62
     7
100
AcDbVertex
100
AcDb2dVertex
 10
159.35427
 20
166.299927
 30
0.0
  0
VERTEX
  5
170
100
AcDbEntity
  8
LAYER_1
 62
     7
100
AcDbVertex
100
AcDb2dVertex
 10
158.842329
 20
168.210921
 30
0.0
  0
VERTEX
  5
171
100
AcDbEntity
  8
LAYER_1
 62
     7
100
AcDbVertex
100
AcDb2dVertex
 10
158.330387
 20
166.299927
 30
0.0
  0
SEQEND
  5
172
100
AcDbEntity
  8
LAYER_1
 62
     7
  0
POLYLINE
  5
169
100
AcDbEntity
  8
LAYER_1
 62
     7
100
AcDb2dPolyline
 66
     1
 10
0.0
 20
0.0
 30
0.0
  0
VERTEX
  5
16A
100
AcDbEntity
  8
LAYER_1
 62
     7
100
AcDbVertex
100
AcDb2dVertex
 10
141.595836
 20
75.990538
 30
0.0
  0
VERTEX
  5
16B
100
AcDbEntity
  8
LAYER_1
 62
     7
100
AcDbVertex
100
AcDb2dVertex
 10
143.506831
 20
76.502824
 30
0.0
  0
VERTEX
  5
16C
100
AcDbEntity
  8
LAYER_1
 62
     7
100
AcDbVertex
100
AcDb2dVertex
 10
141.595836
 20
77.014765
 30
0.0
  0
SEQEND
  5
16D
100
AcDbEntity
  8
LAYER_1
 62
     7
  0
POLYLINE
  5
164
100
AcDbEntity
  8
LAYER_1
 62
     7
100
AcDb2dPolyline
 66
     1
 10
0.0
 20
0.0
 30
0.0
  0
VERTEX
  5
165
100
AcDbEntity
  8
LAYER_1
 62
     7
100
AcDbVertex
100
AcDb2dVertex
 10
65.029795
 20
84.108217
 30
0.0
  0
VERTEX
  5
166
100
AcDbEntity
  8
LAYER_1
 62
     7
100
AcDbVertex
100
AcDb2dVertex
 10
66.940961
 20
84.620158
 30
0.0
  0
VERTEX
  5
167
100
AcDbEntity
  8
LAYER_1
 62
     7
100
AcDbVertex
100
AcDb2dVertex
 10
65.029795
 20
85.132444
 30
0.0
  0
SEQEND
  5
168
100
AcDbEntity
  8
LAYER_1
 62
     7
  0
POLYLINE
  5
15F
100
AcDbEntity
  8
LAYER_1
 62
     7
100
AcDb2dPolyline
 66
     1
 10
0.0
 20
0.0
 30
0.0
  0
VERTEX
  5
160
100
AcDbEntity
  8
LAYER_1
 62
     7
100
AcDbVertex
100
AcDb2dVertex
 10
158.388609
 20
108.802317
 30
0.0
  0
VERTEX
  5
161
100
AcDbEntity
  8
LAYER_1
 62
     7
100
AcDbVertex
100
AcDb2dVertex
 10
158.900551
 20
106.891322
 30
0.0
  0
VERTEX
  5
162
100
AcDbEntity
  8
LAYER_1
 62
     7
100
AcDbVertex
100
AcDb2dVertex
 10
159.412836
 20
108.802317
 30
0.0
  0
SEQEND
  5
163
100
AcDbEntity
  8
LAYER_1
 62
     7
  0
POLYLINE
  5
15A
100
AcDbEntity
  8
LAYER_1
 62
     7
100
AcDb2dPolyline
 66
     1
 10
0.0
 20
0.0
 30
0.0
  0
VERTEX
  5
15B
100
AcDbEntity
  8
LAYER_1
 62
     7
100
AcDbVertex
100
AcDb2dVertex
 10
139.838148
 20
109.034861
 30
0.0
  0
VERTEX
  5
15C
100
AcDbEntity
  8
LAYER_1
 62
     7
100
AcDbVertex
100
AcDb2dVertex
 10
141.749487
 20
109.547146
 30
0.0
  0
VERTEX
  5
15D
100
AcDbEntity
  8
LAYER_1
 62
     7
100
AcDbVertex
100
AcDb2dVertex
 10
139.838148
 20
110.058743
 30
0.0
  0
SEQEND
  5
15E
100
AcDbEntity
  8
LAYER_1
 62
     7
  0
MTEXT
  5
159
100
AcDbEntity
  8
LAYER_1
 62
     7
100
AcDbMText
 10
155.543499
 20
120.406776
 30
0.0
 40
2.610844
 41
0.0
 71
     1
 72
     2
  1
\W0.50;\fMS Gothic|b0|i0|c128;乾式保護工法  600以下
  7
KANJISTD
210
0.0
220
0.0
230
1.0
 11
0.0
 21
1.0
 31
0.0
 73
     1
 44
1.0
  0
MTEXT
  5
158
100
AcDbEntity
  8
LAYER_1
 62
     7
100
AcDbMText
 10
29.628682
 20
157.140775
 30
0.0
 40
2.610844
 41
0.0
 71
     1
 72
     2
  1
\W0.50;\fMS Gothic|b0|i0|c128;(20)
  7
STD
210
0.0
220
0.0
230
1.0
 11
1.000001
 21
0.0
 31
0.0
 73
     1
 44
1.0
  0
MTEXT
  5
157
100
AcDbEntity
  8
LAYER_1
 62
     7
100
AcDbMText
 10
49.365634
 20
156.908058
 30
0.0
 40
2.610844
 41
0.0
 71
     1
 72
     2
  1
\W0.50;\fMS Gothic|b0|i0|c128;(180)
  7
STD
210
0.0
220
0.0
230
1.0
 11
1.000001
 21
0.0
 31
0.0
 73
     1
 44
1.0
  0
LINE
  5
156
100
AcDbEntity
  8
LAYER_1
 62
     7
100
AcDbLine
 10
64.994138
 20
153.909296
 30
0.0
 11
27.818285
 21
153.909296
 31
0.0
  0
MTEXT
  5
155
100
AcDbEntity
  8
LAYER_1
 62
     7
100
AcDbMText
 10
81.082238
 20
205.269813
 30
0.0
 40
2.610844
 41
0.0
 71
     1
 72
     2
  1
\W0.50;\fMS Gothic|b0|i0|c128;(25)
  7
STD
210
0.0
220
0.0
230
1.0
 11
0.0
 21
1.0
 31
0.0
 73
     1
 44
1.0
  0
MTEXT
  5
154
100
AcDbEntity
  8
LAYER_1
 62
     7
100
AcDbMText
 10
78.272418
 20
191.793806
 30
0.0
 40
2.610844
 41
0.0
 71
     1
 72
     2
  1
\W0.50;\fMS Gothic|b0|i0|c128;(170)
  7
STD
210
0.0
220
0.0
230
1.0
 11
0.0
 21
1.0
 31
0.0
 73
     1
 44
1.0
  0
MTEXT
  5
153
100
AcDbEntity
  8
LAYER_1
 62
     7
100
AcDbMText
 10
122.284009
 20
118.122484
 30
0.0
 40
2.610844
 41
0.0
 71
     1
 72
     2
  1
\W0.50;\fMS Gothic|b0|i0|c128;伸縮目地
  7
KANJISTD
210
0.0
220
0.0
230
1.0
 11
1.000001
 21
0.0
 31
0.0
 73
     1
 44
1.0
  0
MTEXT
  5
152
100
AcDbEntity
  8
LAYER_1
 62
     7
100
AcDbMText
 10
175.833884
 20
130.840743
 30
0.0
 40
2.610844
 41
0.0
 71
     1
 72
     2
  1
\W0.50;\fMS Gothic|b0|i0|c128;フラットヤーンクロス(70g/㎡程度)
  7
KANJISTD
210
0.0
220
0.0
230
1.0
 11
1.000001
 21
0.0
 31
0.0
 73
     1
 44
1.0
  0
MTEXT
  5
151
100
AcDbEntity
  8
LAYER_1
 62
     7
100
AcDbMText
 10
176.066428
 20
120.06104
 30
0.0
 40
2.610844
 41
0.0
 71
     1
 72
     2
  1
\W0.50;\fMS Gothic|b0|i0|c128;防水層
  7
KANJISTD
210
0.0
220
0.0
230
1.0
 11
1.000001
 21
0.0
 31
0.0
 73
     1
 44
1.0
  0
MTEXT
  5
150
100
AcDbEntity
  8
LAYER_1
 62
     7
100
AcDbMText
 10
176.221457
 20
125.412306
 30
0.0
 40
2.610844
 41
0.0
 71
     1
 72
     2
  1
\W0.50;\fMS Gothic|b0|i0|c128;断熱材
  7
KANJISTD
210
0.0
220
0.0
230
1.0
 11
1.000001
 21
0.0
 31
0.0
 73
     1
 44
1.0
  0
MTEXT
  5
14F
100
AcDbEntity
  8
LAYER_1
 62
     7
100
AcDbMText
 10
175.678855
 20
136.424554
 30
0.0
 40
2.610844
 41
0.0
 71
     1
 72
     2
  1
\W0.50;\fMS Gothic|b0|i0|c128;押さえコンクリート
  7
KANJISTD
210
0.0
220
0.0
230
1.0
 11
1.000001
 21
0.0
 31
0.0
 73
     1
 44
1.0
  0
MTEXT
  5
14E
100
AcDbEntity
  8
LAYER_1
 62
     7
100
AcDbMText
 10
117.204215
 20
113.818182
 30
0.0
 40
2.610844
 41
0.0
 71
     1
 72
     2
  1
\W0.50;\fMS Gothic|b0|i0|c128;溶接金網
  7
KANJISTD
210
0.0
220
0.0
230
1.0
 11
1.000001
 21
0.0
 31
0.0
 73
     1
 44
1.0
  0
POLYLINE
  5
149
100
AcDbEntity
  8
LAYER_1
 62
     7
100
AcDb2dPolyline
 66
     1
 10
0.0
 20
0.0
 30
0.0
  0
VERTEX
  5
14A
100
AcDbEntity
  8
LAYER_1
 62
     7
100
AcDbVertex
100
AcDb2dVertex
 10
78.65308
 20
101.668213
 30
0.0
  0
VERTEX
  5
14B
100
AcDbEntity
  8
LAYER_1
 62
     7
100
AcDbVertex
100
AcDb2dVertex
 10
85.322613
 20
101.668213
 30
0.0
  0
VERTEX
  5
14C
100
AcDbEntity
  8
LAYER_1
 62
     7
100
AcDbVertex
100
AcDb2dVertex
 10
85.322613
 20
113.444583
 30
0.0
  0
SEQEND
  5
14D
100
AcDbEntity
  8
LAYER_1
 62
     7
  0
MTEXT
  5
148
100
AcDbEntity
  8
LAYER_1
 62
     7
100
AcDbMText
 10
89.372839
 20
139.100015
 30
0.0
 40
2.610844
 41
0.0
 71
     1
 72
     2
  1
\W0.50;\fMS Gothic|b0|i0|c128;成形緩衝材
  7
KANJISTD
210
0.0
220
0.0
230
1.0
 11
1.000001
 21
0.0
 31
0.0
 73
     1
 44
1.0
  0
MTEXT
  5
147
100
AcDbEntity
  8
LAYER_1
 62
     7
100
AcDbMText
 10
91.466768
 20
124.75326
 30
0.0
 40
2.610844
 41
0.0
 71
     1
 72
     2
  1
\W0.50;\fMS Gothic|b0|i0|c128;アンカー
  7
KANJISTD
210
0.0
220
0.0
230
1.0
 11
1.000001
 21
0.0
 31
0.0
 73
     1
 44
1.0
  0
MTEXT
  5
146
100
AcDbEntity
  8
LAYER_1
 62
     7
100
AcDbMText
 10
88.945324
 20
170.263165
 30
0.0
 40
2.610844
 41
0.0
 71
     1
 72
     2
  1
\W0.50;\fMS Gothic|b0|i0|c128;10程度
  7
KANJISTD
210
0.0
220
0.0
230
1.0
 11
0.0
 21
1.0
 31
0.0
 73
     1
 44
1.0
  0
MTEXT
  5
145
100
AcDbEntity
  8
LAYER_1
 62
     7
100
AcDbMText
 10
86.209574
 20
100.931651
 30
0.0
 40
2.610844
 41
0.0
 71
     1
 72
     2
  1
\W0.50;\fMS Gothic|b0|i0|c128;50以下
  7
KANJISTD
210
0.0
220
0.0
230
1.0
 11
0.0
 21
1.0
 31
0.0
 73
     1
 44
1.0
  0
MTEXT
  5
144
100
AcDbEntity
  8
LAYER_1
 62
     7
100
AcDbMText
 10
68.32899
 20
87.74501
 30
0.0
 40
2.610844
 41
0.0
 71
     1
 72
     2
  1
\W0.50;\fMS Gothic|b0|i0|c128;30以上
  7
KANJISTD
210
0.0
220
0.0
230
1.0
 11
1.000001
 21
0.0
 31
0.0
 73
     1
 44
1.0
  0
MTEXT
  5
143
100
AcDbEntity
  8
LAYER_1
 62
     7
100
AcDbMText
 10
103.19663
 20
79.462656
 30
0.0
 40
2.610844
 41
0.0
 71
     1
 72
     2
  1
\W0.50;\fMS Gothic|b0|i0|c128;600程度
  7
KANJISTD
210
0.0
220
0.0
230
1.0
 11
1.000001
 21
0.0
 31
0.0
 73
     1
 44
1.0
  0
MTEXT
  5
142
100
AcDbEntity
  8
LAYER_1
 62
     7
100
AcDbMText
 10
142.030952
 20
112.848732
 30
0.0
 40
2.610844
 41
0.0
 71
     1
 72
     2
  1
\W0.50;\fMS Gothic|b0|i0|c128;(25)
  7
STD
210
0.0
220
0.0
230
1.0
 11
1.000001
 21
0.0
 31
0.0
 73
     1
 44
1.0
  0
MTEXT
  5
141
100
AcDbEntity
  8
LAYER_1
 62
     7
100
AcDbMText
 10
115.766426
 20
97.713243
 30
0.0
 40
2.610844
 41
0.0
 71
     1
 72
     2
  1
\W0.50;\fMS Gothic|b0|i0|c128;(80)
  7
STD
210
0.0
220
0.0
230
1.0
 11
0.0
 21
1.0
 31
0.0
 73
     1
 44
1.0
  0
LINE
  5
140
100
AcDbEntity
  8
LAYER_1
 62
     7
100
AcDbLine
 10
119.023226
 20
95.890788
 30
0.0
 11
119.023226
 21
106.709077
 31
0.0
  0
POLYLINE
  5
13A
100
AcDbEntity
  8
LAYER_1
 62
     7
100
AcDb2dPolyline
 66
     1
 10
0.0
 20
0.0
 30
0.0
  0
VERTEX
  5
13B
100
AcDbEntity
  8
LAYER_1
 62
     7
100
AcDbVertex
100
AcDb2dVertex
 10
143.506831
 20
95.142169
 30
0.0
  0
VERTEX
  5
13C
100
AcDbEntity
  8
LAYER_1
 62
     7
100
AcDbVertex
100
AcDb2dVertex
 10
143.506831
 20
76.502824
 30
0.0
  0
VERTEX
  5
13D
100
AcDbEntity
  8
LAYER_1
 62
     7
100
AcDbVertex
100
AcDb2dVertex
 10
66.915295
 20
76.502824
 30
0.0
  0
VERTEX
  5
13E
100
AcDbEntity
  8
LAYER_1
 62
     7
100
AcDbVertex
100
AcDb2dVertex
 10
66.915295
 20
84.620158
 30
0.0
  0
SEQEND
  5
13F
100
AcDbEntity
  8
LAYER_1
 62
     7
  0
POLYLINE
  5
134
100
AcDbEntity
  8
LAYER_1
 62
     7
100
AcDb2dPolyline
 66
     1
 10
0.0
 20
0.0
 30
0.0
  0
VERTEX
  5
135
100
AcDbEntity
  8
LAYER_1
 62
     7
100
AcDbVertex
100
AcDb2dVertex
 10
145.289667
 20
107.232731
 30
0.0
  0
VERTEX
  5
136
100
AcDbEntity
  8
LAYER_1
 62
     7
100
AcDbVertex
100
AcDb2dVertex
 10
145.289667
 20
109.49168
 30
0.0
  0
VERTEX
  5
137
100
AcDbEntity
  8
LAYER_1
 62
     7
100
AcDbVertex
100
AcDb2dVertex
 10
141.858008
 20
109.49168
 30
0.0
  0
VERTEX
  5
138
100
AcDbEntity
  8
LAYER_1
 62
     7
100
AcDbVertex
100
AcDb2dVertex
 10
141.858008
 20
107.232731
 30
0.0
  0
SEQEND
  5
139
100
AcDbEntity
  8
LAYER_1
 62
     7
  0
POLYLINE
  5
12E
100
AcDbEntity
  8
LAYER_1
 62
     7
100
AcDb2dPolyline
 66
     1
 10
0.0
 20
0.0
 30
0.0
 70
     1
  0
VERTEX
  5
12F
100
AcDbEntity
  8
LAYER_1
 62
     7
100
AcDbVertex
100
AcDb2dVertex
 10
145.233168
 20
96.383436
 30
0.0
  0
VERTEX
  5
130
100
AcDbEntity
  8
LAYER_1
 62
     7
100
AcDbVertex
100
AcDb2dVertex
 10
145.233168
 20
106.563694
 30
0.0
  0
VERTEX
  5
131
100
AcDbEntity
  8
LAYER_1
 62
     7
100
AcDbVertex
100
AcDb2dVertex
 10
141.935522
 20
106.563694
 30
0.0
  0
VERTEX
  5
132
100
AcDbEntity
  8
LAYER_1
 62
     7
100
AcDbVertex
100
AcDb2dVertex
 10
141.935522
 20
96.383436
 30
0.0
  0
SEQEND
  5
133
100
AcDbEntity
  8
LAYER_1
 62
     7
  0
LINE
  5
12D
100
AcDbEntity
  8
LAYER_1
 62
     7
100
AcDbLine
 10
183.853033
 20
96.296275
 30
0.0
 11
72.19611
 21
96.296275
 31
0.0
  0
POLYLINE
  5
127
100
AcDbEntity
  8
LAYER_1
 62
     7
100
AcDb2dPolyline
 66
     1
 10
0.0
 20
0.0
 30
0.0
  0
VERTEX
  5
128
100
AcDbEntity
  8
LAYER_1
 62
     7
100
AcDbVertex
100
AcDb2dVertex
 10
183.853033
 20
95.900434
 30
0.0
  0
VERTEX
  5
129
100
AcDbEntity
  8
LAYER_1
 62
     7
100
AcDbVertex
100
AcDb2dVertex
 10
77.377189
 20
95.900434
 30
0.0
  0
VERTEX
  5
12A
100
AcDbEntity
  8
LAYER_1
 62
     7
100
AcDbVertex
100
AcDb2dVertex
 10
77.377189
 20
92.602789
 30
0.0
  0
VERTEX
  5
12B
100
AcDbEntity
  8
LAYER_1
 62
     7
100
AcDbVertex
100
AcDb2dVertex
 10
183.659418
 20
92.602789
 30
0.0
  0
SEQEND
  5
12C
100
AcDbEntity
  8
LAYER_1
 62
     7
  0
MTEXT
  5
126
100
AcDbEntity
  8
LAYER_1
 62
     7
100
AcDbMText
 10
63.746497
 20
219.390205
 30
0.0
 40
2.610844
 41
0.0
 71
     1
 72
     2
  1
\W0.50;\fMS Gothic|b0|i0|c128;コンクリートこて仕上げA種
  7
KANJISTD
210
0.0
220
0.0
230
1.0
 11
1.000001
 21
0.0
 31
0.0
 73
     1
 44
1.0
  0
LINE
  5
125
100
AcDbEntity
  8
LAYER_1
 62
     7
100
AcDbLine
 10
69.781443
 20
160.155427
 30
0.0
 11
65.159675
 21
164.764103
 31
0.0
  0
LINE
  5
124
100
AcDbEntity
  8
LAYER_1
 62
     7
100
AcDbLine
 10
68.089556
 20
160.115464
 30
0.0
 11
68.897087
 21
160.923166
 31
0.0
  0
LINE
  5
123
100
AcDbEntity
  8
LAYER_1
 62
     7
100
AcDbLine
 10
66.573542
 20
159.918576
 30
0.0
 11
68.266806
 21
161.611841
 31
0.0
  0
LINE
  5
122
100
AcDbEntity
  8
LAYER_1
 62
     7
100
AcDbLine
 10
65.675061
 20
160.33905
 30
0.0
 11
67.600697
 21
162.264686
 31
0.0
  0
LINE
  5
121
100
AcDbEntity
  8
LAYER_1
 62
     7
100
AcDbLine
 10
65.209456
 20
163.693712
 30
0.0
 11
65.777897
 21
164.261981
 31
0.0
  0
LINE
  5
120
100
AcDbEntity
  8
LAYER_1
 62
     7
100
AcDbLine
 10
65.151234
 20
162.443142
 30
0.0
 11
66.316021
 21
163.607585
 31
0.0
  0
LINE
  5
11F
100
AcDbEntity
  8
LAYER_1
 62
     7
100
AcDbLine
 10
65.064073
 20
161.04719
 30
0.0
 11
66.999356
 21
162.982472
 31
0.0
  0
LINE
  5
11E
100
AcDbEntity
  8
LAYER_1
 62
     7
100
AcDbLine
 10
59.821155
 20
157.259652
 30
0.0
 11
67.93556
 21
157.259652
 31
0.0
  0
POLYLINE
  5
119
100
AcDbEntity
  8
LAYER_1
 62
     7
100
AcDb2dPolyline
 66
     1
 10
0.0
 20
0.0
 30
0.0
  0
VERTEX
  5
11A
100
AcDbEntity
  8
LAYER_1
 62
     7
100
AcDbVertex
100
AcDb2dVertex
 10
69.773002
 20
160.090487
 30
0.0
  0
VERTEX
  5
11B
100
AcDbEntity
  8
LAYER_1
 62
     7
100
AcDbVertex
100
AcDb2dVertex
 10
67.6429
 20
160.090487
 30
0.0
  0
VERTEX
  5
11C
100
AcDbEntity
  8
LAYER_1
 62
     7
100
AcDbVertex
100
AcDb2dVertex
 10
67.6429
 20
151.569904
 30
0.0
  0
SEQEND
  5
11D
100
AcDbEntity
  8
LAYER_1
 62
     7
  0
LINE
  5
118
100
AcDbEntity
  8
LAYER_1
 62
     7
100
AcDbLine
 10
68.326234
 20
84.620158
 30
0.0
 11
66.940961
 21
84.620158
 31
0.0
  0
LINE
  5
117
100
AcDbEntity
  8
LAYER_1
 62
     7
100
AcDbLine
 10
75.724577
 20
205.587796
 30
0.0
 11
81.02899
 21
205.587796
 31
0.0
  0
POLYLINE
  5
112
100
AcDbEntity
  8
LAYER_1
 62
     7
100
AcDb2dPolyline
 66
     1
 10
0.0
 20
0.0
 30
0.0
  0
VERTEX
  5
113
100
AcDbEntity
  8
LAYER_1
 62
     7
100
AcDbVertex
100
AcDb2dVertex
 10
75.978136
 20
182.845859
 30
0.0
  0
VERTEX
  5
114
100
AcDbEntity
  8
LAYER_1
 62
     7
100
AcDbVertex
100
AcDb2dVertex
 10
80.980242
 20
182.845859
 30
0.0
  0
VERTEX
  5
115
100
AcDbEntity
  8
LAYER_1
 62
     7
100
AcDbVertex
100
AcDb2dVertex
 10
80.980242
 20
213.73114
 30
0.0
  0
SEQEND
  5
116
100
AcDbEntity
  8
LAYER_1
 62
     7
  0
LINE
  5
111
100
AcDbEntity
  8
LAYER_1
 62
     7
100
AcDbLine
 10
158.842329
 20
168.18026
 30
0.0
 11
158.842329
 21
106.315647
 31
0.0
  0
LINE
  5
110
100
AcDbEntity
  8
LAYER_1
 62
     7
100
AcDbLine
 10
39.916254
 20
208.770547
 30
0.0
 11
80.931839
 21
208.84565
 31
0.0
  0
MTEXT
  5
10F
100
AcDbEntity
  8
LAYER_1
 62
     7
100
AcDbMText
 10
93.456311
 20
129.855791
 30
0.0
 40
2.610844
 41
0.0
 71
     1
 72
     2
  1
\W0.50;\fMS Gothic|b0|i0|c128;下部ホルダー
  7
KANJISTD
210
0.0
220
0.0
230
1.0
 11
1.000001
 21
0.0
 31
0.0
 73
     1
 44
1.0
  0
MTEXT
  5
10E
100
AcDbEntity
  8
LAYER_1
 62
     7
100
AcDbMText
 10
92.458439
 20
157.185044
 30
0.0
 40
2.610844
 41
0.0
 71
     1
 72
     2
  1
\W0.50;\fMS Gothic|b0|i0|c128;ボード
  7
KANJISTD
210
0.0
220
0.0
230
1.0
 11
1.000001
 21
0.0
 31
0.0
 73
     1
 44
1.0
  0
SPLINE
  5
10D
100
AcDbEntity
  8
LAYER_1
 62
     7
100
AcDbSpline
210
0.0
220
0.0
230
1.0
 70
     8
 71
     3
 72
    17
 73
    13
 74
     0
 42
0.00000001
 43
0.00000001
 40
0.0
 40
0.0
 40
0.0
 40
0.0
 40
1.0
 40
1.0
 40
1.0
 40
2.0
 40
2.0
 40
2.0
 40
3.0
 40
3.0
 40
3.0
 40
4.0
 40
4.0
 40
4.0
 40
4.0
 10
178.86591254340277
 20
100.28914116753471
 30
0.0
 10
179.10741373697914
 20
100.44623752170138
 30
0.0
 10
179.24590657552082
 20
100.72115614149304
 30
0.0
 10
179.22868109809025
 20
101.00847710503471
 30
0.0
 10
179.15047743055553
 20
101.3860595703125
 30
0.0
 10
178.8087239583333
 20
101.649609375
 30
0.0
 10
178.42425130208332
 20
101.62997233072916
 30
0.0
 10
178.04701334635416
 20
101.55176866319444
 30
0.0
 10
177.78277452256944
 20
101.21035970052083
 30
0.0
 10
177.80275607638887
 20
100.82554253472222
 30
0.0
 10
177.97638888888886
 20
100.40903049045139
 30
0.0
 10
178.42769639756943
 20
100.18130967881943
 30
0.0
 10
178.86591254340277
 20
100.28914116753471
 30
0.0
  0
SPLINE
  5
10C
100
AcDbEntity
  8
LAYER_1
 62
     7
100
AcDbSpline
210
0.0
220
0.0
230
1.0
 70
     8
 71
     3
 72
    17
 73
    13
 74
     0
 42
0.00000001
 43
0.00000001
 40
0.0
 40
0.0
 40
0.0
 40
0.0
 40
1.0
 40
1.0
 40
1.0
 40
2.0
 40
2.0
 40
2.0
 40
3.0
 40
3.0
 40
3.0
 40
4.0
 40
4.0
 40
4.0
 40
4.0
 10
169.63305664062497
 20
100.28914116753471
 30
0.0
 10
169.87455783420137
 20
100.44623752170138
 30
0.0
 10
170.01339518229165
 20
100.72115614149304
 30
0.0
 10
169.99582519531248
 20
101.00847710503471
 30
0.0
 10
169.91762152777775
 20
101.3860595703125
 30
0.0
 10
169.57586805555553
 20
101.649609375
 30
0.0
 10
169.19105088975692
 20
101.62997233072916
 30
0.0
 10
168.81381293402777
 20
101.55176866319444
 30
0.0
 10
168.54991861979164
 20
101.21035970052083
 30
0.0
 10
168.56955566406248
 20
100.82554253472222
 30
0.0
 10
168.74318847656249
 20
100.40903049045139
 30
0.0
 10
169.19484049479166
 20
100.18130967881943
 30
0.0
 10
169.63305664062497
 20
100.28914116753471
 30
0.0
  0
SPLINE
  5
10B
100
AcDbEntity
  8
LAYER_1
 62
     7
100
AcDbSpline
210
0.0
220
0.0
230
1.0
 70
     8
 71
     3
 72
    17
 73
    13
 74
     0
 42
0.00000001
 43
0.00000001
 40
0.0
 40
0.0
 40
0.0
 40
0.0
 40
1.0
 40
1.0
 40
1.0
 40
2.0
 40
2.0
 40
2.0
 40
3.0
 40
3.0
 40
3.0
 40
4.0
 40
4.0
 40
4.0
 40
4.0
 10
160.3998562282986
 20
100.28914116753471
 30
0.0
 10
160.6417019314236
 20
100.44623752170138
 30
0.0
 10
160.78019476996528
 20
100.72115614149304
 30
0.0
 10
160.76262478298611
 20
101.00847710503471
 30
0.0
 10
160.68442111545139
 20
101.3860595703125
 30
0.0
 10
160.34301215277776
 20
101.649609375
 30
0.0
 10
159.95819498697915
 20
101.62997233072916
 30
0.0
 10
159.58095703124999
 20
101.55176866319444
 30
0.0
 10
159.31706271701387
 20
101.21035970052083
 30
0.0
 10
159.33669976128471
 20
100.82554253472222
 30
0.0
 10
159.51033257378469
 20
100.40903049045139
 30
0.0
 10
159.96164008246527
 20
100.18130967881943
 30
0.0
 10
160.3998562282986
 20
100.28914116753471
 30
0.0
  0
SPLINE
  5
10A
100
AcDbEntity
  8
LAYER_1
 62
     7
100
AcDbSpline
210
0.0
220
0.0
230
1.0
 70
     8
 71
     3
 72
    17
 73
    13
 74
     0
 42
0.00000001
 43
0.00000001
 40
0.0
 40
0.0
 40
0.0
 40
0.0
 40
1.0
 40
1.0
 40
1.0
 40
2.0
 40
2.0
 40
2.0
 40
3.0
 40
3.0
 40
3.0
 40
4.0
 40
4.0
 40
4.0
 40
4.0
 10
151.16700032552083
 20
100.28914116753471
 30
0.0
 10
151.40884602864583
 20
100.44623752170138
 30
0.0
 10
151.54733886718748
 20
100.72115614149304
 30
0.0
 10
151.53011338975693
 20
101.00847710503471
 30
0.0
 10
151.45156521267359
 20
101.3860595703125
 30
0.0
 10
151.11015624999999
 20
101.649609375
 30
0.0
 10
150.72533908420138
 20
101.62997233072916
 30
0.0
 10
150.3477566189236
 20
101.55176866319444
 30
0.0
 10
150.0842068142361
 20
101.21035970052083
 30
0.0
 10
150.10384385850693
 20
100.82554253472222
 30
0.0
 10
150.27713216145833
 20
100.40903049045139
 30
0.0
 10
150.72878417968749
 20
100.18130967881943
 30
0.0
 10
151.16700032552083
 20
100.28914116753471
 30
0.0
  0
SPLINE
  5
109
100
AcDbEntity
  8
LAYER_1
 62
     7
100
AcDbSpline
210
0.0
220
0.0
230
1.0
 70
     8
 71
     3
 72
    17
 73
    13
 74
     0
 42
0.00000001
 43
0.00000001
 40
0.0
 40
0.0
 40
0.0
 40
0.0
 40
1.0
 40
1.0
 40
1.0
 40
2.0
 40
2.0
 40
2.0
 40
3.0
 40
3.0
 40
3.0
 40
4.0
 40
4.0
 40
4.0
 40
4.0
 10
136.42474772135415
 20
100.31842447916665
 30
0.0
 10
136.66659342447915
 20
100.47517632378471
 30
0.0
 10
136.80508626302083
 20
100.75009494357639
 30
0.0
 10
136.78786078559025
 20
101.03776041666666
 30
0.0
 10
136.70965711805553
 20
101.41499837239583
 30
0.0
 10
136.36790364583331
 20
101.67889268663194
 30
0.0
 10
135.9827419704861
 20
101.6592556423611
 30
0.0
 10
135.60550401475695
 20
101.58105197482638
 30
0.0
 10
135.34195421006945
 20
101.23929850260416
 30
0.0
 10
135.36159125434025
 20
100.85448133680555
 30
0.0
 10
135.53522406684027
 20
100.43796929253472
 30
0.0
 10
135.98653157552081
 20
100.21024848090276
 30
0.0
 10
136.42474772135415
 20
100.31842447916665
 30
0.0
  0
SPLINE
  5
108
100
AcDbEntity
  8
LAYER_1
 62
     7
100
AcDbSpline
210
0.0
220
0.0
230
1.0
 70
     8
 71
     3
 72
    17
 73
    13
 74
     0
 42
0.00000001
 43
0.00000001
 40
0.0
 40
0.0
 40
0.0
 40
0.0
 40
1.0
 40
1.0
 40
1.0
 40
2.0
 40
2.0
 40
2.0
 40
3.0
 40
3.0
 40
3.0
 40
4.0
 40
4.0
 40
4.0
 40
4.0
 10
127.19189181857638
 20
100.31842447916665
 30
0.0
 10
127.43339301215276
 20
100.47517632378471
 30
0.0
 10
127.57223036024304
 20
100.75009494357639
 30
0.0
 10
127.55466037326387
 20
101.03776041666666
 30
0.0
 10
127.47645670572915
 20
101.41499837239583
 30
0.0
 10
127.13504774305554
 20
101.67889268663194
 30
0.0
 10
126.75023057725693
 20
101.6592556423611
 30
0.0
 10
126.37264811197916
 20
101.58105197482638
 30
0.0
 10
126.10875379774305
 20
101.23929850260416
 30
0.0
 10
126.12839084201387
 20
100.85448133680555
 30
0.0
 10
126.30202365451387
 20
100.43796929253472
 30
0.0
 10
126.75367567274304
 20
100.21024848090276
 30
0.0
 10
127.19189181857638
 20
100.31842447916665
 30
0.0
  0
SPLINE
  5
107
100
AcDbEntity
  8
LAYER_1
 62
     7
100
AcDbSpline
210
0.0
220
0.0
230
1.0
 70
     8
 71
     3
 72
    17
 73
    13
 74
     0
 42
0.00000001
 43
0.00000001
 40
0.0
 40
0.0
 40
0.0
 40
0.0
 40
1.0
 40
1.0
 40
1.0
 40
2.0
 40
2.0
 40
2.0
 40
3.0
 40
3.0
 40
3.0
 40
4.0
 40
4.0
 40
4.0
 40
4.0
 10
108.72618001302082
 20
100.31842447916665
 30
0.0
 10
108.96768120659721
 20
100.47517632378471
 30
0.0
 10
109.10617404513889
 20
100.75009494357639
 30
0.0
 10
109.08894856770833
 20
101.03776041666666
 30
0.0
 10
109.01074490017361
 20
101.41499837239583
 30
0.0
 10
108.66899142795138
 20
101.67889268663194
 30
0.0
 10
108.28417426215277
 20
101.6592556423611
 30
0.0
 10
107.9069363064236
 20
101.58105197482638
 30
0.0
 10
107.64304199218749
 20
101.23929850260416
 30
0.0
 10
107.66267903645833
 20
100.85448133680555
 30
0.0
 10
107.83631184895832
 20
100.43796929253472
 30
0.0
 10
108.28796386718749
 20
100.21024848090276
 30
0.0
 10
108.72618001302082
 20
100.31842447916665
 30
0.0
  0
SPLINE
  5
106
100
AcDbEntity
  8
LAYER_1
 62
     7
100
AcDbSpline
210
0.0
220
0.0
230
1.0
 70
     8
 71
     3
 72
    17
 73
    13
 74
     0
 42
0.00000001
 43
0.00000001
 40
0.0
 40
0.0
 40
0.0
 40
0.0
 40
1.0
 40
1.0
 40
1.0
 40
2.0
 40
2.0
 40
2.0
 40
3.0
 40
3.0
 40
3.0
 40
4.0
 40
4.0
 40
4.0
 40
4.0
 10
99.49297960069444
 20
100.31842447916665
 30
0.0
 10
99.734653049045136
 20
100.47517632378471
 30
0.0
 10
99.8733181423611
 20
100.75009494357639
 30
0.0
 10
99.855920410156244
 20
101.03776041666666
 30
0.0
 10
99.777716742621521
 20
101.41499837239583
 30
0.0
 10
99.435963270399299
 20
101.67889268663194
 30
0.0
 10
99.050973849826377
 20
101.6592556423611
 30
0.0
 10
98.673908148871519
 20
101.58105197482638
 30
0.0
 10
98.410013834635407
 20
101.23929850260416
 30
0.0
 10
98.429823133680543
 20
100.85448133680555
 30
0.0
 10
98.603283691406247
 20
100.43796929253472
 30
0.0
 10
99.054763454861103
 20
100.21024848090276
 30
0.0
 10
99.49297960069444
 20
100.31842447916665
 30
0.0
  0
SPLINE
  5
105
100
AcDbEntity
  8
LAYER_1
 62
     7
100
AcDbSpline
210
0.0
220
0.0
230
1.0
 70
     8
 71
     3
 72
    17
 73
    13
 74
     0
 42
0.00000001
 43
0.00000001
 40
0.0
 40
0.0
 40
0.0
 40
0.0
 40
1.0
 40
1.0
 40
1.0
 40
2.0
 40
2.0
 40
2.0
 40
3.0
 40
3.0
 40
3.0
 40
4.0
 40
4.0
 40
4.0
 40
4.0
 10
90.259951443142356
 20
100.31842447916665
 30
0.0
 10
90.501624891493051
 20
100.47517632378471
 30
0.0
 10
90.640117730034717
 20
100.75009494357639
 30
0.0
 10
90.62289225260416
 20
101.03776041666666
 30
0.0
 10
90.544688585069437
 20
101.41499837239583
 30
0.0
 10
90.202935112847214
 20
101.67889268663194
 30
0.0
 10
89.818290201822904
 20
101.6592556423611
 30
0.0
 10
89.440879991319434
 20
101.58105197482638
 30
0.0
 10
89.176985677083323
 20
101.23929850260416
 30
0.0
 10
89.19662272135416
 20
100.85448133680555
 30
0.0
 10
89.370255533854163
 20
100.43796929253472
 30
0.0
 10
89.821735297309019
 20
100.21024848090276
 30
0.0
 10
90.259951443142356
 20
100.31842447916665
 30
0.0
  0
SPLINE
  5
104
100
AcDbEntity
  8
LAYER_1
 62
     7
100
AcDbSpline
210
0.0
220
0.0
230
1.0
 70
     8
 71
     3
 72
    17
 73
    13
 74
     0
 42
0.00000001
 43
0.00000001
 40
0.0
 40
0.0
 40
0.0
 40
0.0
 40
1.0
 40
1.0
 40
1.0
 40
2.0
 40
2.0
 40
2.0
 40
3.0
 40
3.0
 40
3.0
 40
4.0
 40
4.0
 40
4.0
 40
4.0
 10
81.02709554036457
 20
100.31842447916665
 30
0.0
 10
81.268768988715266
 20
100.47517632378471
 30
0.0
 10
81.407261827256931
 20
100.75009494357639
 30
0.0
 10
81.389864095052076
 20
101.03776041666666
 30
0.0
 10
81.311660427517353
 20
101.41499837239583
 30
0.0
 10
80.970079210069443
 20
101.67889268663194
 30
0.0
 10
80.58526204427082
 20
101.6592556423611
 30
0.0
 10
80.208024088541663
 20
101.58105197482638
 30
0.0
 10
79.944129774305551
 20
101.23929850260416
 30
0.0
 10
79.963766818576389
 20
100.85448133680555
 30
0.0
 10
80.137399631076377
 20
100.43796929253472
 30
0.0
 10
80.588879394531247
 20
100.21024848090276
 30
0.0
 10
81.02709554036457
 20
100.31842447916665
 30
0.0
  0
SPLINE
  5
103
100
AcDbEntity
  8
LAYER_1
 62
     7
100
AcDbSpline
210
0.0
220
0.0
230
1.0
 70
     8
 71
     3
 72
    23
 73
    19
 74
     0
 42
0.00000001
 43
0.00000001
 40
0.0
 40
0.0
 40
0.0
 40
0.0
 40
1.0
 40
1.0
 40
1.0
 40
2.0
 40
2.0
 40
2.0
 40
3.0
 40
3.0
 40
3.0
 40
4.0
 40
4.0
 40
4.0
 40
5.0
 40
5.0
 40
5.0
 40
6.0
 40
6.0
 40
6.0
 40
6.0
 10
74.975785319010413
 20
103.83069932725694
 30
0.0
 10
75.051921929253467
 20
103.89925672743054
 30
0.0
 10
75.095846896701389
 20
103.99675292968749
 30
0.0
 10
75.09670817057291
 20
104.09941677517361
 30
0.0
 10
75.09670817057291
 20
104.19484592013887
 30
0.0
 10
75.058812120225681
 20
104.28614095052082
 30
0.0
 10
74.991460503472211
 20
104.3536648220486
 30
0.0
 10
74.923936631944443
 20
104.42084418402777
 30
0.0
 10
74.8326416015625
 20
104.45874023437499
 30
0.0
 10
74.73721245659722
 20
104.45874023437499
 30
0.0
 10
74.641955566406239
 20
104.45874023437499
 30
0.0
 10
74.550660536024296
 20
104.42084418402777
 30
0.0
 10
74.483308919270826
 20
104.3536648220486
 30
0.0
 10
74.415785047743043
 20
104.28614095052082
 30
0.0
 10
74.378061252170127
 20
104.19484592013887
 30
0.0
 10
74.378061252170127
 20
104.09941677517361
 30
0.0
 10
74.470217556423606
 20
103.86170518663194
 30
0.0
 10
74.736523437499997
 20
103.74181586371527
 30
0.0
 10
74.975785319010413
 20
103.83069932725694
 30
0.0
  0
SPLINE
  5
102
100
AcDbEntity
  8
LAYER_1
 62
     7
100
AcDbSpline
210
0.0
220
0.0
230
1.0
 70
     8
 71
     3
 72
    17
 73
    13
 74
     0
 42
0.00000001
 43
0.00000001
 40
0.0
 40
0.0
 40
0.0
 40
0.0
 40
1.0
 40
1.0
 40
1.0
 40
2.0
 40
2.0
 40
2.0
 40
3.0
 40
3.0
 40
3.0
 40
4.0
 40
4.0
 40
4.0
 40
4.0
 10
68.27783067491319
 20
104.96826985677082
 30
0.0
 10
68.354139539930543
 20
105.03717176649305
 30
0.0
 10
68.398064507378464
 20
105.13466796874999
 30
0.0
 10
68.39892578125
 20
105.2373318142361
 30
0.0
 10
68.397375488281241
 20
105.43508029513887
 30
0.0
 10
68.237350802951383
 20
105.59527723524305
 30
0.0
 10
68.039430067274296
 20
105.59665527343749
 30
0.0
 10
67.841509331597223
 20
105.59527723524305
 30
0.0
 10
67.681312391493051
 20
105.43508029513887
 30
0.0
 10
67.679934353298606
 20
105.2373318142361
 30
0.0
 10
67.772262912326383
 20
104.99927571614582
 30
0.0
 10
68.038568793402774
 20
104.87938639322915
 30
0.0
 10
68.27783067491319
 20
104.96826985677082
 30
0.0
  0
SPLINE
  5
101
100
AcDbEntity
  8
LAYER_1
 62
     7
100
AcDbSpline
210
0.0
220
0.0
230
1.0
 70
     8
 71
     3
 72
    17
 73
    13
 74
     0
 42
0.00000001
 43
0.00000001
 40
0.0
 40
0.0
 40
0.0
 40
0.0
 40
1.0
 40
1.0
 40
1.0
 40
2.0
 40
2.0
 40
2.0
 40
3.0
 40
3.0
 40
3.0
 40
4.0
 40
4.0
 40
4.0
 40
4.0
 10
76.797896321614573
 20
109.13373480902777
 30
0.0
 10
76.87420518663194
 20
109.20263671874999
 30
0.0
 10
76.918130154079847
 20
109.30013292100693
 30
0.0
 10
76.918991427951383
 20
109.40279676649304
 30
0.0
 10
76.917613389756937
 20
109.60054524739583
 30
0.0
 10
76.757588704427079
 20
109.76074218749999
 30
0.0
 10
76.559495713975693
 20
109.76246473524304
 30
0.0
 10
76.361574978298606
 20
109.76074218749999
 30
0.0
 10
76.201550292968747
 20
109.60054524739583
 30
0.0
 10
76.199999999999989
 20
109.40279676649304
 30
0.0
 10
76.292500813802079
 20
109.16474066840277
 30
0.0
 10
76.558634440104157
 20
109.04485134548609
 30
0.0
 10
76.797896321614573
 20
109.13373480902777
 30
0.0
  0
POLYLINE
  5
FC
100
AcDbEntity
  8
LAYER_1
 62
     7
100
AcDb2dPolyline
 66
     1
 10
0.0
 20
0.0
 30
0.0
  0
VERTEX
  5
FD
100
AcDbEntity
  8
LAYER_1
 62
     7
100
AcDbVertex
100
AcDb2dVertex
 10
138.835626
 20
100.667068
 30
0.0
  0
VERTEX
  5
FE
100
AcDbEntity
  8
LAYER_1
 62
     7
100
AcDbVertex
100
AcDb2dVertex
 10
132.07876
 20
112.49856
 30
0.0
  0
VERTEX
  5
FF
100
AcDbEntity
  8
LAYER_1
 62
     7
100
AcDbVertex
100
AcDb2dVertex
 10
130.662137
 20
112.49856
 30
0.0
  0
SEQEND
  5
100
100
AcDbEntity
  8
LAYER_1
 62
     7
  0
POLYLINE
  5
F7
100
AcDbEntity
  8
LAYER_1
 62
     7
100
AcDb2dPolyline
 66
     1
 10
0.0
 20
0.0
 30
0.0
  0
VERTEX
  5
F8
100
AcDbEntity
  8
LAYER_1
 62
     7
100
AcDbVertex
100
AcDb2dVertex
 10
143.284966
 20
104.854926
 30
0.0
  0
VERTEX
  5
F9
100
AcDbEntity
  8
LAYER_1
 62
     7
100
AcDbVertex
100
AcDb2dVertex
 10
136.528101
 20
116.686418
 30
0.0
  0
VERTEX
  5
FA
100
AcDbEntity
  8
LAYER_1
 62
     7
100
AcDbVertex
100
AcDb2dVertex
 10
135.111477
 20
116.686418
 30
0.0
  0
SEQEND
  5
FB
100
AcDbEntity
  8
LAYER_1
 62
     7
  0
LINE
  5
F6
100
AcDbEntity
  8
LAYER_1
 62
     7
100
AcDbLine
 10
66.920463
 20
98.160761
 30
0.0
 11
66.920463
 21
84.616368
 31
0.0
  0
POLYLINE
  5
F1
100
AcDbEntity
  8
LAYER_1
 62
     7
100
AcDb2dPolyline
 66
     1
 10
0.0
 20
0.0
 30
0.0
  0
VERTEX
  5
F2
100
AcDbEntity
  8
LAYER_1
 62
     7
100
AcDbVertex
100
AcDb2dVertex
 10
74.758917
 20
101.249289
 30
0.0
  0
VERTEX
  5
F3
100
AcDbEntity
  8
LAYER_1
 62
     7
100
AcDbVertex
100
AcDb2dVertex
 10
74.758917
 20
84.616368
 30
0.0
  0
VERTEX
  5
F4
100
AcDbEntity
  8
LAYER_1
 62
     7
100
AcDbVertex
100
AcDb2dVertex
 10
65.118334
 20
84.616368
 30
0.0
  0
SEQEND
  5
F5
100
AcDbEntity
  8
LAYER_1
 62
     7
  0
LINE
  5
F0
100
AcDbEntity
  8
LAYER_1
 62
     7
100
AcDbLine
 10
74.739796
 20
108.027515
 30
0.0
 11
74.739796
 21
101.52593
 31
0.0
  0
POLYLINE
  5
E6
100
AcDbEntity
  8
LAYER_1
 62
     7
100
AcDb2dPolyline
 66
     1
 10
0.0
 20
0.0
 30
0.0
 70
     1
  0
VERTEX
  5
E7
100
AcDbEntity
  8
LAYER_1
 62
     7
100
AcDbVertex
100
AcDb2dVertex
 10
76.515915
 20
110.593077
 30
0.0
  0
VERTEX
  5
E8
100
AcDbEntity
  8
LAYER_1
 62
     7
100
AcDbVertex
100
AcDb2dVertex
 10
76.51402
 20
107.353309
 30
0.0
  0
VERTEX
  5
E9
100
AcDbEntity
  8
LAYER_1
 62
     7
100
AcDbVertex
100
AcDb2dVertex
 10
72.755077
 20
107.353309
 30
0.0
  0
VERTEX
  5
EA
100
AcDbEntity
  8
LAYER_1
 62
     7
100
AcDbVertex
100
AcDb2dVertex
 10
72.755249
 20
110.593077
 30
0.0
  0
VERTEX
  5
EB
100
AcDbEntity
  8
LAYER_1
 62
     7
100
AcDbVertex
100
AcDb2dVertex
 10
73.18623
 20
110.593077
 30
0.0
  0
VERTEX
  5
EC
100
AcDbEntity
  8
LAYER_1
 62
     7
100
AcDbVertex
100
AcDb2dVertex
 10
73.18623
 20
107.784635
 30
0.0
  0
VERTEX
  5
ED
100
AcDbEntity
  8
LAYER_1
 62
     7
100
AcDbVertex
100
AcDb2dVertex
 10
76.084589
 20
107.784635
 30
0.0
  0
VERTEX
  5
EE
100
AcDbEntity
  8
LAYER_1
 62
     7
100
AcDbVertex
100
AcDb2dVertex
 10
76.084589
 20
110.593077
 30
0.0
  0
SEQEND
  5
EF
100
AcDbEntity
  8
LAYER_1
 62
     7
  0
LINE
  5
E5
100
AcDbEntity
  8
LAYER_1
 62
     7
100
AcDbLine
 10
157.396766
 20
106.591943
 30
0.0
 11
167.641791
 21
96.346574
 31
0.0
  0
LINE
  5
E4
100
AcDbEntity
  8
LAYER_1
 62
     7
100
AcDbLine
 10
156.023551
 20
106.646031
 30
0.0
 11
166.319564
 21
96.350019
 31
0.0
  0
LINE
  5
E3
100
AcDbEntity
  8
LAYER_1
 62
     7
100
AcDbLine
 10
154.840506
 20
106.50995
 30
0.0
 11
164.985278
 21
96.365177
 31
0.0
  0
LINE
  5
E2
100
AcDbEntity
  8
LAYER_1
 62
     7
100
AcDbLine
 10
131.016637
 20
106.591943
 30
0.0
 11
141.277854
 21
96.330726
 31
0.0
  0
LINE
  5
E1
100
AcDbEntity
  8
LAYER_1
 62
     7
100
AcDbLine
 10
129.643766
 20
106.646031
 30
0.0
 11
139.955282
 21
96.334172
 31
0.0
  0
LINE
  5
E0
100
AcDbEntity
  8
LAYER_1
 62
     7
100
AcDbLine
 10
128.46072
 20
106.50995
 30
0.0
 11
138.620996
 21
96.349674
 31
0.0
  0
LINE
  5
DF
100
AcDbEntity
  8
LAYER_1
 62
     7
100
AcDbLine
 10
104.636679
 20
106.591943
 30
0.0
 11
114.855349
 21
96.373446
 31
0.0
  0
LINE
  5
DE
100
AcDbEntity
  8
LAYER_1
 62
     7
100
AcDbLine
 10
103.263637
 20
106.646031
 30
0.0
 11
113.533122
 21
96.376546
 31
0.0
  0
LINE
  5
DD
100
AcDbEntity
  8
LAYER_1
 62
     7
100
AcDbLine
 10
102.080763
 20
106.50995
 30
0.0
 11
112.198836
 21
96.392049
 31
0.0
  0
LINE
  5
DC
100
AcDbEntity
  8
LAYER_1
 62
     7
100
AcDbLine
 10
78.256894
 20
106.591943
 30
0.0
 11
88.578573
 21
96.270093
 31
0.0
  0
LINE
  5
DB
100
AcDbEntity
  8
LAYER_1
 62
     7
100
AcDbLine
 10
76.883679
 20
106.646031
 30
0.0
 11
87.256173
 21
96.273538
 31
0.0
  0
LINE
  5
DA
100
AcDbEntity
  8
LAYER_1
 62
     7
100
AcDbLine
 10
183.859578
 20
94.728413
 30
0.0
 11
181.812503
 21
92.681337
 31
0.0
  0
LINE
  5
D9
100
AcDbEntity
  8
LAYER_1
 62
     7
100
AcDbLine
 10
181.763238
 20
95.851514
 30
0.0
 11
183.811692
 21
93.802715
 31
0.0
  0
LINE
  5
D8
100
AcDbEntity
  8
LAYER_1
 62
     7
100
AcDbLine
 10
182.344425
 20
95.851514
 30
0.0
 11
179.174593
 21
92.681337
 31
0.0
  0
LINE
  5
D7
100
AcDbEntity
  8
LAYER_1
 62
     7
100
AcDbLine
 10
179.125328
 20
95.851514
 30
0.0
 11
182.295161
 21
92.681337
 31
0.0
  0
LINE
  5
D6
100
AcDbEntity
  8
LAYER_1
 62
     7
100
AcDbLine
 10
179.706516
 20
95.851514
 30
0.0
 11
176.536683
 21
92.681337
 31
0.0
  0
LINE
  5
D5
100
AcDbEntity
  8
LAYER_1
 62
     7
100
AcDbLine
 10
176.487074
 20
95.851514
 30
0.0
 11
179.656906
 21
92.681337
 31
0.0
  0
LINE
  5
D4
100
AcDbEntity
  8
LAYER_1
 62
     7
100
AcDbLine
 10
177.068606
 20
95.851514
 30
0.0
 11
173.898774
 21
92.681337
 31
0.0
  0
LINE
  5
D3
100
AcDbEntity
  8
LAYER_1
 62
     7
100
AcDbLine
 10
173.849164
 20
95.851514
 30
0.0
 11
177.018997
 21
92.681337
 31
0.0
  0
LINE
  5
D2
100
AcDbEntity
  8
LAYER_1
 62
     7
100
AcDbLine
 10
174.430352
 20
95.851514
 30
0.0
 11
171.26052
 21
92.681337
 31
0.0
  0
LINE
  5
D1
100
AcDbEntity
  8
LAYER_1
 62
     7
100
AcDbLine
 10
171.211255
 20
95.851514
 30
0.0
 11
174.381432
 21
92.681337
 31
0.0
  0
LINE
  5
D0
100
AcDbEntity
  8
LAYER_1
 62
     7
100
AcDbLine
 10
171.792442
 20
95.851514
 30
0.0
 11
168.62261
 21
92.681337
 31
0.0
  0
LINE
  5
CF
100
AcDbEntity
  8
LAYER_1
 62
     7
100
AcDbLine
 10
168.573345
 20
95.851514
 30
0.0
 11
171.743178
 21
92.681337
 31
0.0
  0
LINE
  5
CE
100
AcDbEntity
  8
LAYER_1
 62
     7
100
AcDbLine
 10
169.154533
 20
95.851514
 30
0.0
 11
165.984701
 21
92.681337
 31
0.0
  0
LINE
  5
CD
100
AcDbEntity
  8
LAYER_1
 62
     7
100
AcDbLine
 10
165.935091
 20
95.851514
 30
0.0
 11
169.104924
 21
92.681337
 31
0.0
  0
LINE
  5
CC
100
AcDbEntity
  8
LAYER_1
 62
     7
100
AcDbLine
 10
166.516623
 20
95.851514
 30
0.0
 11
163.346446
 21
92.681337
 31
0.0
  0
LINE
  5
CB
100
AcDbEntity
  8
LAYER_1
 62
     7
100
AcDbLine
 10
163.297182
 20
95.851514
 30
0.0
 11
166.467358
 21
92.681337
 31
0.0
  0
LINE
  5
CA
100
AcDbEntity
  8
LAYER_1
 62
     7
100
AcDbLine
 10
163.878714
 20
95.851514
 30
0.0
 11
160.708881
 21
92.681337
 31
0.0
  0
LINE
  5
C9
100
AcDbEntity
  8
LAYER_1
 62
     7
100
AcDbLine
 10
160.659272
 20
95.851514
 30
0.0
 11
163.829104
 21
92.681337
 31
0.0
  0
LINE
  5
C8
100
AcDbEntity
  8
LAYER_1
 62
     7
100
AcDbLine
 10
161.240804
 20
95.851514
 30
0.0
 11
158.070627
 21
92.681337
 31
0.0
  0
LINE
  5
C7
100
AcDbEntity
  8
LAYER_1
 62
     7
100
AcDbLine
 10
158.021018
 20
95.851514
 30
0.0
 11
161.191195
 21
92.681337
 31
0.0
  0
LINE
  5
C6
100
AcDbEntity
  8
LAYER_1
 62
     7
100
AcDbLine
 10
158.60255
 20
95.851514
 30
0.0
 11
155.432718
 21
92.681337
 31
0.0
  0
LINE
  5
C5
100
AcDbEntity
  8
LAYER_1
 62
     7
100
AcDbLine
 10
155.383453
 20
95.851514
 30
0.0
 11
158.552941
 21
92.681337
 31
0.0
  0
LINE
  5
C4
100
AcDbEntity
  8
LAYER_1
 62
     7
100
AcDbLine
 10
155.96464
 20
95.851514
 30
0.0
 11
152.794463
 21
92.681337
 31
0.0
  0
LINE
  5
C3
100
AcDbEntity
  8
LAYER_1
 62
     7
100
AcDbLine
 10
152.745199
 20
95.851514
 30
0.0
 11
155.915375
 21
92.681337
 31
0.0
  0
LINE
  5
C2
100
AcDbEntity
  8
LAYER_1
 62
     7
100
AcDbLine
 10
153.326731
 20
95.851514
 30
0.0
 11
150.156898
 21
92.681337
 31
0.0
  0
LINE
  5
C1
100
AcDbEntity
  8
LAYER_1
 62
     7
100
AcDbLine
 10
150.107289
 20
95.851514
 30
0.0
 11
153.277121
 21
92.681337
 31
0.0
  0
LINE
  5
C0
100
AcDbEntity
  8
LAYER_1
 62
     7
100
AcDbLine
 10
150.688821
 20
95.851514
 30
0.0
 11
147.518644
 21
92.681337
 31
0.0
  0
LINE
  5
BF
100
AcDbEntity
  8
LAYER_1
 62
     7
100
AcDbLine
 10
147.469379
 20
95.851514
 30
0.0
 11
150.639212
 21
92.681337
 31
0.0
  0
LINE
  5
BE
100
AcDbEntity
  8
LAYER_1
 62
     7
100
AcDbLine
 10
148.050567
 20
95.851514
 30
0.0
 11
144.880735
 21
92.681337
 31
0.0
  0
LINE
  5
BD
100
AcDbEntity
  8
LAYER_1
 62
     7
100
AcDbLine
 10
144.831125
 20
95.851514
 30
0.0
 11
148.001302
 21
92.681337
 31
0.0
  0
LINE
  5
BC
100
AcDbEntity
  8
LAYER_1
 62
     7
100
AcDbLine
 10
144.622352
 20
106.581608
 30
0.0
 11
142.009937
 21
103.968848
 31
0.0
  0
LINE
  5
BB
100
AcDbEntity
  8
LAYER_1
 62
     7
100
AcDbLine
 10
142.550817
 20
106.549224
 30
0.0
 11
145.130504
 21
103.968848
 31
0.0
  0
LINE
  5
BA
100
AcDbEntity
  8
LAYER_1
 62
     7
100
AcDbLine
 10
145.180113
 20
104.501115
 30
0.0
 11
142.009937
 21
101.330938
 31
0.0
  0
LINE
  5
B9
100
AcDbEntity
  8
LAYER_1
 62
     7
100
AcDbLine
 10
141.960672
 20
104.501115
 30
0.0
 11
145.130504
 21
101.330938
 31
0.0
  0
LINE
  5
B8
100
AcDbEntity
  8
LAYER_1
 62
     7
100
AcDbLine
 10
145.180113
 20
101.862861
 30
0.0
 11
142.009937
 21
98.693028
 31
0.0
  0
LINE
  5
B7
100
AcDbEntity
  8
LAYER_1
 62
     7
100
AcDbLine
 10
141.960672
 20
101.862861
 30
0.0
 11
145.130504
 21
98.693028
 31
0.0
  0
LINE
  5
B6
100
AcDbEntity
  8
LAYER_1
 62
     7
100
AcDbLine
 10
145.180113
 20
99.224951
 30
0.0
 11
142.371672
 21
96.416509
 31
0.0
  0
LINE
  5
B5
100
AcDbEntity
  8
LAYER_1
 62
     7
100
AcDbLine
 10
141.960672
 20
99.224951
 30
0.0
 11
144.705379
 21
96.480244
 31
0.0
  0
LINE
  5
B4
100
AcDbEntity
  8
LAYER_1
 62
     7
100
AcDbLine
 10
145.412657
 20
95.851514
 30
0.0
 11
142.242825
 21
92.681337
 31
0.0
  0
LINE
  5
B3
100
AcDbEntity
  8
LAYER_1
 62
     7
100
AcDbLine
 10
142.193216
 20
95.851514
 30
0.0
 11
145.363392
 21
92.681337
 31
0.0
  0
LINE
  5
B2
100
AcDbEntity
  8
LAYER_1
 62
     7
100
AcDbLine
 10
142.774748
 20
95.851514
 30
0.0
 11
139.604915
 21
92.681337
 31
0.0
  0
LINE
  5
B1
100
AcDbEntity
  8
LAYER_1
 62
     7
100
AcDbLine
 10
139.55565
 20
95.851514
 30
0.0
 11
142.725138
 21
92.681337
 31
0.0
  0
LINE
  5
B0
100
AcDbEntity
  8
LAYER_1
 62
     7
100
AcDbLine
 10
140.136838
 20
95.851514
 30
0.0
 11
136.966661
 21
92.681337
 31
0.0
  0
LINE
  5
AF
100
AcDbEntity
  8
LAYER_1
 62
     7
100
AcDbLine
 10
136.917396
 20
95.851514
 30
0.0
 11
140.087229
 21
92.681337
 31
0.0
  0
LINE
  5
AE
100
AcDbEntity
  8
LAYER_1
 62
     7
100
AcDbLine
 10
137.498928
 20
95.851514
 30
0.0
 11
134.328752
 21
92.681337
 31
0.0
  0
LINE
  5
AD
100
AcDbEntity
  8
LAYER_1
 62
     7
100
AcDbLine
 10
134.279487
 20
95.851514
 30
0.0
 11
137.449319
 21
92.681337
 31
0.0
  0
LINE
  5
AC
100
AcDbEntity
  8
LAYER_1
 62
     7
100
AcDbLine
 10
134.860674
 20
95.851514
 30
0.0
 11
131.690842
 21
92.681337
 31
0.0
  0
LINE
  5
AB
100
AcDbEntity
  8
LAYER_1
 62
     7
100
AcDbLine
 10
131.641577
 20
95.851514
 30
0.0
 11
134.811065
 21
92.681337
 31
0.0
  0
LINE
  5
AA
100
AcDbEntity
  8
LAYER_1
 62
     7
100
AcDbLine
 10
132.222765
 20
95.851514
 30
0.0
 11
129.052588
 21
92.681337
 31
0.0
  0
LINE
  5
A9
100
AcDbEntity
  8
LAYER_1
 62
     7
100
AcDbLine
 10
129.003323
 20
95.851514
 30
0.0
 11
132.1735
 21
92.681337
 31
0.0
  0
LINE
  5
A8
100
AcDbEntity
  8
LAYER_1
 62
     7
100
AcDbLine
 10
129.584511
 20
95.851514
 30
0.0
 11
126.415023
 21
92.681337
 31
0.0
  0
LINE
  5
A7
100
AcDbEntity
  8
LAYER_1
 62
     7
100
AcDbLine
 10
126.365413
 20
95.851514
 30
0.0
 11
129.535246
 21
92.681337
 31
0.0
  0
LINE
  5
A6
100
AcDbEntity
  8
LAYER_1
 62
     7
100
AcDbLine
 10
126.946601
 20
95.851514
 30
0.0
 11
123.776769
 21
92.681337
 31
0.0
  0
LINE
  5
A5
100
AcDbEntity
  8
LAYER_1
 62
     7
100
AcDbLine
 10
123.727504
 20
95.851514
 30
0.0
 11
126.897336
 21
92.681337
 31
0.0
  0
LINE
  5
A4
100
AcDbEntity
  8
LAYER_1
 62
     7
100
AcDbLine
 10
124.308691
 20
95.851514
 30
0.0
 11
121.138859
 21
92.681337
 31
0.0
  0
LINE
  5
A3
100
AcDbEntity
  8
LAYER_1
 62
     7
100
AcDbLine
 10
121.089594
 20
95.851514
 30
0.0
 11
124.259427
 21
92.681337
 31
0.0
  0
LINE
  5
A2
100
AcDbEntity
  8
LAYER_1
 62
     7
100
AcDbLine
 10
121.670782
 20
95.851514
 30
0.0
 11
118.500949
 21
92.681337
 31
0.0
  0
LINE
  5
A1
100
AcDbEntity
  8
LAYER_1
 62
     7
100
AcDbLine
 10
118.45134
 20
95.851514
 30
0.0
 11
121.621517
 21
92.681337
 31
0.0
  0
LINE
  5
A0
100
AcDbEntity
  8
LAYER_1
 62
     7
100
AcDbLine
 10
119.032872
 20
95.851514
 30
0.0
 11
115.86304
 21
92.681337
 31
0.0
  0
LINE
  5
9F
100
AcDbEntity
  8
LAYER_1
 62
     7
100
AcDbLine
 10
115.81343
 20
95.851514
 30
0.0
 11
118.983263
 21
92.681337
 31
0.0
  0
LINE
  5
9E
100
AcDbEntity
  8
LAYER_1
 62
     7
100
AcDbLine
 10
116.394963
 20
95.851514
 30
0.0
 11
113.224786
 21
92.681337
 31
0.0
  0
LINE
  5
9D
100
AcDbEntity
  8
LAYER_1
 62
     7
100
AcDbLine
 10
113.175521
 20
95.851514
 30
0.0
 11
116.345353
 21
92.681337
 31
0.0
  0
LINE
  5
9C
100
AcDbEntity
  8
LAYER_1
 62
     7
100
AcDbLine
 10
113.756708
 20
95.851514
 30
0.0
 11
110.586876
 21
92.681337
 31
0.0
  0
LINE
  5
9B
100
AcDbEntity
  8
LAYER_1
 62
     7
100
AcDbLine
 10
110.537611
 20
95.851514
 30
0.0
 11
113.707444
 21
92.681337
 31
0.0
  0
LINE
  5
9A
100
AcDbEntity
  8
LAYER_1
 62
     7
100
AcDbLine
 10
111.118799
 20
95.851514
 30
0.0
 11
107.948966
 21
92.681337
 31
0.0
  0
LINE
  5
99
100
AcDbEntity
  8
LAYER_1
 62
     7
100
AcDbLine
 10
107.899357
 20
95.851514
 30
0.0
 11
111.069189
 21
92.681337
 31
0.0
  0
LINE
  5
98
100
AcDbEntity
  8
LAYER_1
 62
     7
100
AcDbLine
 10
108.480889
 20
95.851514
 30
0.0
 11
105.311057
 21
92.681337
 31
0.0
  0
LINE
  5
97
100
AcDbEntity
  8
LAYER_1
 62
     7
100
AcDbLine
 10
105.261447
 20
95.851514
 30
0.0
 11
108.431624
 21
92.681337
 31
0.0
  0
LINE
  5
96
100
AcDbEntity
  8
LAYER_1
 62
     7
100
AcDbLine
 10
105.842635
 20
95.851514
 30
0.0
 11
102.672975
 21
92.681337
 31
0.0
  0
LINE
  5
95
100
AcDbEntity
  8
LAYER_1
 62
     7
100
AcDbLine
 10
102.623538
 20
95.851514
 30
0.0
 11
105.79337
 21
92.681337
 31
0.0
  0
LINE
  5
94
100
AcDbEntity
  8
LAYER_1
 62
     7
100
AcDbLine
 10
103.204898
 20
95.851514
 30
0.0
 11
100.034893
 21
92.681337
 31
0.0
  0
LINE
  5
93
100
AcDbEntity
  8
LAYER_1
 62
     7
100
AcDbLine
 10
99.985456
 20
95.851514
 30
0.0
 11
103.155461
 21
92.681337
 31
0.0
  0
LINE
  5
92
100
AcDbEntity
  8
LAYER_1
 62
     7
100
AcDbLine
 10
100.566816
 20
95.851514
 30
0.0
 11
97.396984
 21
92.681337
 31
0.0
  0
LINE
  5
91
100
AcDbEntity
  8
LAYER_1
 62
     7
100
AcDbLine
 10
97.347546
 20
95.851514
 30
0.0
 11
100.517551
 21
92.681337
 31
0.0
  0
LINE
  5
90
100
AcDbEntity
  8
LAYER_1
 62
     7
100
AcDbLine
 10
97.928906
 20
95.851514
 30
0.0
 11
94.758902
 21
92.681337
 31
0.0
  0
LINE
  5
8F
100
AcDbEntity
  8
LAYER_1
 62
     7
100
AcDbLine
 10
94.709637
 20
95.851514
 30
0.0
 11
97.879469
 21
92.681337
 31
0.0
  0
LINE
  5
8E
100
AcDbEntity
  8
LAYER_1
 62
     7
100
AcDbLine
 10
95.290997
 20
95.851514
 30
0.0
 11
92.121164
 21
92.681337
 31
0.0
  0
LINE
  5
8D
100
AcDbEntity
  8
LAYER_1
 62
     7
100
AcDbLine
 10
92.071727
 20
95.851514
 30
0.0
 11
95.241387
 21
92.681337
 31
0.0
  0
LINE
  5
8C
100
AcDbEntity
  8
LAYER_1
 62
     7
100
AcDbLine
 10
92.652915
 20
95.851514
 30
0.0
 11
89.48291
 21
92.681337
 31
0.0
  0
LINE
  5
8B
100
AcDbEntity
  8
LAYER_1
 62
     7
100
AcDbLine
 10
89.433645
 20
95.851514
 30
0.0
 11
92.603478
 21
92.681337
 31
0.0
  0
LINE
  5
8A
100
AcDbEntity
  8
LAYER_1
 62
     7
100
AcDbLine
 10
79.463022
 20
95.851514
 30
0.0
 11
76.251676
 21
92.639996
 31
0.0
  0
LINE
  5
89
100
AcDbEntity
  8
LAYER_1
 62
     7
100
AcDbLine
 10
77.375983
 20
94.750117
 30
0.0
 11
79.496612
 21
92.598655
 31
0.0
  0
LINE
  5
88
100
AcDbEntity
  8
LAYER_1
 62
     7
100
AcDbLine
 10
82.100932
 20
95.851514
 30
0.0
 11
78.889414
 21
92.639996
 31
0.0
  0
LINE
  5
87
100
AcDbEntity
  8
LAYER_1
 62
     7
100
AcDbLine
 10
78.862887
 20
95.870117
 30
0.0
 11
82.134521
 21
92.598655
 31
0.0
  0
LINE
  5
86
100
AcDbEntity
  8
LAYER_1
 62
     7
100
AcDbLine
 10
84.738841
 20
95.851514
 30
0.0
 11
81.569009
 21
92.681337
 31
0.0
  0
LINE
  5
85
100
AcDbEntity
  8
LAYER_1
 62
     7
100
AcDbLine
 10
81.519572
 20
95.851514
 30
0.0
 11
84.689404
 21
92.681337
 31
0.0
  0
LINE
  5
84
100
AcDbEntity
  8
LAYER_1
 62
     7
100
AcDbLine
 10
87.376923
 20
95.851514
 30
0.0
 11
84.206919
 21
92.681337
 31
0.0
  0
LINE
  5
83
100
AcDbEntity
  8
LAYER_1
 62
     7
100
AcDbLine
 10
84.157654
 20
95.851514
 30
0.0
 11
87.327486
 21
92.681337
 31
0.0
  0
LINE
  5
82
100
AcDbEntity
  8
LAYER_1
 62
     7
100
AcDbLine
 10
90.014833
 20
95.851514
 30
0.0
 11
86.845001
 21
92.681337
 31
0.0
  0
LINE
  5
81
100
AcDbEntity
  8
LAYER_1
 62
     7
100
AcDbLine
 10
86.795563
 20
95.851514
 30
0.0
 11
89.965396
 21
92.681337
 31
0.0
  0
LINE
  5
80
100
AcDbEntity
  8
LAYER_1
 62
     7
100
AcDbLine
 10
75.700633
 20
106.50995
 30
0.0
 11
85.939974
 21
96.270782
 31
0.0
  0
LINE
  5
7F
100
AcDbEntity
  8
LAYER_1
 62
     7
100
AcDbLine
 10
76.901249
 20
199.251404
 30
0.0
 11
70.45048
 21
205.702517
 31
0.0
  0
LINE
  5
7E
100
AcDbEntity
  8
LAYER_1
 62
     7
100
AcDbLine
 10
77.018038
 20
200.454259
 30
0.0
 11
71.90655
 21
205.565403
 31
0.0
  0
LINE
  5
7D
100
AcDbEntity
  8
LAYER_1
 62
     7
100
AcDbLine
 10
76.994267
 20
201.796985
 30
0.0
 11
73.430488
 21
205.360936
 31
0.0
  0
LINE
  5
7C
100
AcDbEntity
  8
LAYER_1
 62
     7
100
AcDbLine
 10
66.858451
 20
182.914417
 30
0.0
 11
44.781418
 21
204.843827
 31
0.0
  0
LINE
  5
7B
100
AcDbEntity
  8
LAYER_1
 62
     7
100
AcDbLine
 10
68.201522
 20
182.890645
 30
0.0
 11
44.73956
 21
206.352779
 31
0.0
  0
LINE
  5
7A
100
AcDbEntity
  8
LAYER_1
 62
     7
100
AcDbLine
 10
69.23884
 20
183.172971
 30
0.0
 11
44.739733
 21
207.671734
 31
0.0
  0
LINE
  5
79
100
AcDbEntity
  8
LAYER_1
 62
     7
100
AcDbLine
 10
65.11351
 20
158.279572
 30
0.0
 11
38.791086
 21
184.602686
 31
0.0
  0
LINE
  5
78
100
AcDbEntity
  8
LAYER_1
 62
     7
100
AcDbLine
 10
65.074925
 20
159.637112
 30
0.0
 11
38.791086
 21
185.920435
 31
0.0
  0
LINE
  5
77
100
AcDbEntity
  8
LAYER_1
 62
     7
100
AcDbLine
 10
65.065624
 20
160.965713
 30
0.0
 11
38.791086
 21
187.240595
 31
0.0
  0
LINE
  5
76
100
AcDbEntity
  8
LAYER_1
 62
     7
100
AcDbLine
 10
65.11351
 20
131.899615
 30
0.0
 11
38.791086
 21
158.222211
 31
0.0
  0
LINE
  5
75
100
AcDbEntity
  8
LAYER_1
 62
     7
100
AcDbLine
 10
65.074925
 20
133.257327
 30
0.0
 11
38.791086
 21
159.540994
 31
0.0
  0
LINE
  5
74
100
AcDbEntity
  8
LAYER_1
 62
     7
100
AcDbLine
 10
65.065624
 20
134.585756
 30
0.0
 11
38.791086
 21
160.860293
 31
0.0
  0
LINE
  5
73
100
AcDbEntity
  8
LAYER_1
 62
     7
100
AcDbLine
 10
65.11351
 20
105.51983
 30
0.0
 11
38.791086
 21
131.842082
 31
0.0
  0
LINE
  5
72
100
AcDbEntity
  8
LAYER_1
 62
     7
100
AcDbLine
 10
65.074925
 20
106.877197
 30
0.0
 11
38.791086
 21
133.161209
 31
0.0
  0
LINE
  5
71
100
AcDbEntity
  8
LAYER_1
 62
     7
100
AcDbLine
 10
65.065624
 20
108.205971
 30
0.0
 11
38.791086
 21
134.480336
 31
0.0
  0
LINE
  5
70
100
AcDbEntity
  8
LAYER_1
 62
     7
100
AcDbLine
 10
51.558782
 20
66.314643
 30
0.0
 11
38.791086
 21
79.082511
 31
0.0
  0
LINE
  5
6F
100
AcDbEntity
  8
LAYER_1
 62
     7
100
AcDbLine
 10
52.91615
 20
66.276402
 30
0.0
 11
38.791086
 21
80.401294
 31
0.0
  0
LINE
  5
6E
100
AcDbEntity
  8
LAYER_1
 62
     7
100
AcDbLine
 10
54.215468
 20
66.296039
 30
0.0
 11
38.791086
 21
81.720421
 31
0.0
  0
LINE
  5
6D
100
AcDbEntity
  8
LAYER_1
 62
     7
100
AcDbLine
 10
183.835807
 20
66.138943
 30
0.0
 11
159.461412
 21
90.513338
 31
0.0
  0
LINE
  5
6C
100
AcDbEntity
  8
LAYER_1
 62
     7
100
AcDbLine
 10
183.845454
 20
67.448424
 30
0.0
 11
160.789841
 21
90.504036
 31
0.0
  0
LINE
  5
6B
100
AcDbEntity
  8
LAYER_1
 62
     7
100
AcDbLine
 10
183.884383
 20
68.728621
 30
0.0
 11
162.088987
 21
90.524018
 31
0.0
  0
LINE
  5
6A
100
AcDbEntity
  8
LAYER_1
 62
     7
100
AcDbLine
 10
157.25414
 20
66.138943
 30
0.0
 11
132.879744
 21
90.513338
 31
0.0
  0
LINE
  5
69
100
AcDbEntity
  8
LAYER_1
 62
     7
100
AcDbLine
 10
158.533993
 20
66.178217
 30
0.0
 11
134.208173
 21
90.504036
 31
0.0
  0
LINE
  5
68
100
AcDbEntity
  8
LAYER_1
 62
     7
100
AcDbLine
 10
160.046734
 20
65.984603
 30
0.0
 11
135.507319
 21
90.524018
 31
0.0
  0
LINE
  5
67
100
AcDbEntity
  8
LAYER_1
 62
     7
100
AcDbLine
 10
108.432313
 20
88.580984
 30
0.0
 11
106.499959
 21
90.513338
 31
0.0
  0
LINE
  5
66
100
AcDbEntity
  8
LAYER_1
 62
     7
100
AcDbLine
 10
130.983219
 20
66.030078
 30
0.0
 11
108.432313
 21
88.580984
 31
0.0
  0
LINE
  5
65
100
AcDbEntity
  8
LAYER_1
 62
     7
100
AcDbLine
 10
109.790025
 20
88.542399
 30
0.0
 11
107.828044
 21
90.504036
 31
0.0
  0
LINE
  5
64
100
AcDbEntity
  8
LAYER_1
 62
     7
100
AcDbLine
 10
132.16971
 20
66.16237
 30
0.0
 11
109.790025
 21
88.542399
 31
0.0
  0
LINE
  5
63
100
AcDbEntity
  8
LAYER_1
 62
     7
100
AcDbLine
 10
111.147393
 20
88.503814
 30
0.0
 11
109.127534
 21
90.524018
 31
0.0
  0
LINE
  5
62
100
AcDbEntity
  8
LAYER_1
 62
     7
100
AcDbLine
 10
133.464722
 20
66.186141
 30
0.0
 11
111.147393
 21
88.503814
 31
0.0
  0
LINE
  5
61
100
AcDbEntity
  8
LAYER_1
 62
     7
100
AcDbLine
 10
85.044421
 20
85.588919
 30
0.0
 11
80.11983
 21
90.513338
 31
0.0
  0
LINE
  5
60
100
AcDbEntity
  8
LAYER_1
 62
     7
100
AcDbLine
 10
104.603434
 20
66.030078
 30
0.0
 11
85.044421
 21
85.588919
 31
0.0
  0
LINE
  5
5F
100
AcDbEntity
  8
LAYER_1
 62
     7
100
AcDbLine
 10
86.401789
 20
85.550334
 30
0.0
 11
81.448258
 21
90.504036
 31
0.0
  0
LINE
  5
5E
100
AcDbEntity
  8
LAYER_1
 62
     7
100
AcDbLine
 10
105.789925
 20
66.16237
 30
0.0
 11
86.401789
 21
85.550334
 31
0.0
  0
LINE
  5
5D
100
AcDbEntity
  8
LAYER_1
 62
     7
100
AcDbLine
 10
87.720572
 20
85.551023
 30
0.0
 11
82.747576
 21
90.524018
 31
0.0
  0
LINE
  5
5C
100
AcDbEntity
  8
LAYER_1
 62
     7
100
AcDbLine
 10
107.084937
 20
66.186141
 30
0.0
 11
87.720572
 21
85.551023
 31
0.0
  0
LINE
  5
5B
100
AcDbEntity
  8
LAYER_1
 62
     7
100
AcDbLine
 10
78.010053
 20
66.24333
 30
0.0
 11
38.791086
 21
105.462297
 31
0.0
  0
LINE
  5
5A
100
AcDbEntity
  8
LAYER_1
 62
     7
100
AcDbLine
 10
79.367765
 20
66.204744
 30
0.0
 11
38.791086
 21
106.781079
 31
0.0
  0
LINE
  5
59
100
AcDbEntity
  8
LAYER_1
 62
     7
100
AcDbLine
 10
80.704979
 20
66.186141
 30
0.0
 11
38.791086
 21
108.100206
 31
0.0
  0
LINE
  5
58
100
AcDbEntity
  8
LAYER_1
 62
     7
100
AcDbLine
 10
115.39244
 20
100.220584
 30
0.0
 11
70.547976
 21
100.220584
 31
0.0
  0
LINE
  5
57
100
AcDbEntity
  8
LAYER_1
 62
     7
100
AcDbLine
 10
140.849628
 20
100.220584
 30
0.0
 11
119.502783
 21
100.220584
 31
0.0
  0
LINE
  5
56
100
AcDbEntity
  8
LAYER_1
 62
     7
100
AcDbLine
 10
183.812381
 20
100.167874
 30
0.0
 11
146.433784
 21
100.167874
 31
0.0
  0
LINE
  5
55
100
AcDbEntity
  8
LAYER_1
 62
     7
100
AcDbLine
 10
86.098104
 20
106.54888
 30
0.0
 11
67.204167
 21
106.54888
 31
0.0
  0
LINE
  5
54
100
AcDbEntity
  8
LAYER_1
 62
     7
100
AcDbLine
 10
183.811003
 20
106.54888
 30
0.0
 11
89.179914
 21
106.54888
 31
0.0
  0
SPLINE
  5
53
100
AcDbEntity
  8
LAYER_1
 62
     7
100
AcDbSpline
210
0.0
220
0.0
230
1.0
 70
     8
 71
     3
 72
    26
 73
    22
 74
     0
 42
0.00000001
 43
0.00000001
 40
0.0
 40
0.0
 40
0.0
 40
0.0
 40
1.0
 40
1.0
 40
1.0
 40
2.0
 40
2.0
 40
2.0
 40
3.0
 40
3.0
 40
3.0
 40
4.0
 40
4.0
 40
4.0
 40
5.0
 40
5.0
 40
5.0
 40
6.0
 40
6.0
 40
6.0
 40
7.0
 40
7.0
 40
7.0
 40
7.0
 10
183.81341417100694
 20
92.473253038194443
 30
0.0
 10
183.81341417100694
 20
92.473253038194443
 30
0.0
 10
71.510019259982627
 20
92.473253038194443
 30
0.0
 10
71.510019259982627
 20
92.473253038194443
 30
0.0
 10
71.510019259982627
 20
92.473253038194443
 30
0.0
 10
66.959564887152766
 20
96.933618164062494
 30
0.0
 10
66.959564887152766
 20
96.933618164062494
 30
0.0
 10
66.959564887152766
 20
96.933618164062494
 30
0.0
 10
66.922874620225684
 20
159.57423909505206
 30
0.0
 10
66.922874620225684
 20
159.57423909505206
 30
0.0
 10
66.645716688368054
 20
160.25223388671873
 30
0.0
 10
65.957903374565973
 20
160.66960720486111
 30
0.0
 10
65.22857666015625
 20
160.60208333333333
 30
0.0
 10
65.22857666015625
 20
160.60208333333333
 30
0.0
 10
65.23443332248263
 20
96.220138888888883
 30
0.0
 10
65.23443332248263
 20
96.220138888888883
 30
0.0
 10
65.23443332248263
 20
96.220138888888883
 30
0.0
 10
70.749169921874994
 20
90.747949218749994
 30
0.0
 10
70.749169921874994
 20
90.747949218749994
 30
0.0
 10
70.749169921874994
 20
90.747949218749994
 30
0.0
 10
183.81341417100694
 20
90.747949218749994
 30
0.0
 10
183.81341417100694
 20
90.747949218749994
 30
0.0
  0
INSERT
  5
34
100
AcDbEntity
  8
LAYER_1
 62
     7
100
AcDbBlockReference
  2
AI9-BLK1
 10
72.272505
 20
99.530531
 30
0.0
  0
MTEXT
  5
30
100
AcDbEntity
  8
レイヤー_1
 62
     7
100
AcDbMText
 10
9.25077
 20
246.19564
 30
0.0
 40
5.204837
 41
0.0
 71
     1
 72
     2
  1
\W0.50;\fMS Gothic|b0|i0|c128;■乾式保護工法標準納まり詳細図
  7
KANJISTD
210
0.0
220
0.0
230
1.0
 11
1.000001
 21
0.0
 31
0.0
 73
     1
 44
1.0
  0
POLYLINE
  5
2A
100
AcDbEntity
  8
レイヤー_1
 62
     7
100
AcDb2dPolyline
 66
     1
 10
0.0
 20
0.0
 30
0.0
 70
     1
  0
VERTEX
  5
2B
100
AcDbEntity
  8
レイヤー_1
 62
     7
100
AcDbVertex
100
AcDb2dVertex
 10
112.313902
 20
238.034049
 30
0.0
  0
VERTEX
  5
2C
100
AcDbEntity
  8
レイヤー_1
 62
     7
100
AcDbVertex
100
AcDb2dVertex
 10
112.313902
 20
248.478201
 30
0.0
  0
VERTEX
  5
2D
100
AcDbEntity
  8
レイヤー_1
 62
     7
100
AcDbVertex
100
AcDb2dVertex
 10
5.02071
 20
248.478201
 30
0.0
  0
VERTEX
  5
2E
100
AcDbEntity
  8
レイヤー_1
 62
     7
100
AcDbVertex
100
AcDb2dVertex
 10
5.02071
 20
238.034049
 30
0.0
  0
SEQEND
  5
2F
100
AcDbEntity
  8
レイヤー_1
 62
     7
  0
MTEXT
  5
29
100
AcDbEntity
  8
レイヤー_1
 62
     7
100
AcDbMText
 10
115.889223
 20
242.753332
 30
0.0
 40
4.089519
 41
0.0
 71
     1
 72
     2
  1
\W0.50;\fMS Gothic|b0|i0|c128;【断熱防水】
  7
KANJISTD
210
0.0
220
0.0
230
1.0
 11
1.000001
 21
0.0
 31
0.0
 73
     1
 44
1.0
  0
ENDSEC
  0
SECTION
  2
OBJECTS
  0
DICTIONARY
  5
19
100
AcDbDictionary
280
     0
281
     1
  3
ACAD_GROUP
350
1A
  3
ACAD_MLINESTYLE
350
1B
  3
ACAD_LAYOUT
350
1E
  3
ACAD_PLOTSETTINGS
350
22
  3
ACAD_PLOTSTYLENAME
350
1F
  3
ACAD_WIPEOUT_VARS
350
23
  0
DICTIONARY
  5
1A
102
{ACAD_REACTORS
330
19
102
}
100
AcDbDictionary
280
     0
281
     1
  0
DICTIONARY
  5
1B
102
{ACAD_REACTORS
330
19
102
}
100
AcDbDictionary
280
     0
281
     1
  3
Standard
350
1C
  0
MLINESTYLE
  5
1C
102
{ACAD_REACTORS
330
1B
102
}
100
AcDbMlineStyle
  2
Standard
 70
     0
  3

 62
     0
 51
90.0
 52
90.0
 71
     2
 49
0.5
 62
   256
  6
BYLAYER
 49
-0.5
 62
   256
  6
BYLAYER
  0
ACDBDICTIONARYWDFLT
  5
1F
102
{ACAD_REACTORS
330
19
102
}
100
AcDbDictionary
281
     1
  3
Normal
350
1D
100
AcDbDictionaryWithDefault
340
1D
  0
ACDBPLACEHOLDER
  5
1D
102
{ACAD_REACTORS
330
1F
102
}
  0
LAYOUT
  5
20
102
{ACAD_REACTORS
330
1E
102
}
100
AcDbPlotSettings
  1

  2

  4

  6

 40
0.0
 41
0.0
 42
0.0
 43
0.0
 44
0.0
 45
0.0
 46
0.0
 47
0.0
 48
0.0
 49
0.0
140
0.0
141
0.0
142
1.0
143
1.0
 70
  1024
 72
     0
 73
     0
 74
     0
  7

 75
     0
147
1.0
148
0.0
149
0.0
100
AcDbLayout
  1
Model
 70
     0
 71
     0
 10
0.0
 20
0.0
 11
0.0
 21
0.0
 12
0.0
 22
0.0
 32
0.0
 14
0.0
 24
0.0
 34
0.0
 15
0.0
 25
0.0
 35
0.0
146
0.0
 13
0.0
 23
0.0
 33
0.0
 16
0.0
 26
0.0
 36
0.0
 17
0.0
 27
0.0
 37
0.0
 76
     0
330
A
331
0
345
0
346
0
  0
LAYOUT
  5
21
102
{ACAD_REACTORS
330
1E
102
}
100
AcDbPlotSettings
  1

  2

  4

  6

 40
0.0
 41
0.0
 42
0.0
 43
0.0
 44
0.0
 45
0.0
 46
0.0
 47
0.0
 48
0.0
 49
0.0
140
0.0
141
0.0
142
1.0
143
1.0
 70
     0
 72
     0
 73
     0
 74
     0
  7

 75
     0
147
1.0
148
0.0
149
0.0
100
AcDbLayout
  1
Layout1
 70
     0
 71
     0
 10
0.0
 20
0.0
 11
0.0
 21
0.0
 12
0.0
 22
0.0
 32
0.0
 14
0.0
 24
0.0
 34
0.0
 15
0.0
 25
0.0
 35
0.0
146
0.0
 13
0.0
 23
0.0
 33
0.0
 16
0.0
 26
0.0
 36
0.0
 17
0.0
 27
0.0
 37
0.0
 76
     0
330
B
331
0
345
0
346
0
  0
DICTIONARY
  5
1E
102
{ACAD_REACTORS
330
19
102
}
100
AcDbDictionary
280
     0
281
     1
  3
Layout1
350
21
  3
Model
350
20
  0
DICTIONARY
  5
22
102
{ACAD_REACTORS
330
19
102
}
100
AcDbDictionary
280
     0
281
     1
  0
WIPEOUTVARIABLES
  5
23
100
AcDbWipeoutVariables
 70
     1
  0
ENDSEC
  0
EOF
