  0
SECTION
  2
HEADER
  9
$ACADVER
  1
AC1015
  9
$ACADMAINTVER
 70
     6
  9
$DWGCODEPAGE
  3
ANSI_932
  9
$INSBASE
 10
0.0
 20
0.0
 30
0.0
  9
$EXTMIN
 10
4.938889
 20
64.857023
 30
1.000000E+20
  9
$EXTMAX
 10
203.905556
 20
231.601023
 30
-1.000000E+20
  9
$LIMMIN
 10
4.938889
 20
64.857023
  9
$LIMMAX
 10
203.905556
 20
231.601023
  9
$ORTHOMODE
 70
     0
  9
$REGENMODE
 70
     1
  9
$FILLMODE
 70
     1
  9
$QTEXTMODE
 70
     0
  9
$MIRRTEXT
 70
     1
  9
$LTSCALE
 40
1.0
  9
$ATTMODE
 70
     1
  9
$TEXTSIZE
 40
0.2
  9
$TRACEWID
 40
0.05
  9
$TEXTSTYLE
  7
Standard
  9
$CLAYER
  8
0
  9
$CELTYPE
  6
Continuous
  9
$CECOLOR
 62
   256
  9
$CELTSCALE
 40
1.0
  9
$DISPSILH
 70
     0
  9
$DIMSCALE
 40
1.0
  9
$DIMASZ
 40
0.18
  9
$DIMEXO
 40
0.0625
  9
$DIMDLI
 40
0.38
  9
$DIMRND
 40
0.0
  9
$DIMDLE
 40
0.0
  9
$DIMEXE
 40
0.18
  9
$DIMTP
 40
0.0
  9
$DIMTM
 40
0.0
  9
$DIMTXT
 40
0.18
  9
$DIMCEN
 40
0.09
  9
$DIMTSZ
 40
0.0
  9
$DIMTOL
 70
     0
  9
$DIMLIM
 70
     0
  9
$DIMTIH
 70
     1
  9
$DIMTOH
 70
     1
  9
$DIMSE1
 70
     0
  9
$DIMSE2
 70
     0
  9
$DIMTAD
 70
     0
  9
$DIMZIN
 70
     0
  9
$DIMBLK
  1

  9
$DIMASO
 70
     1
  9
$DIMSHO
 70
     1
  9
$DIMPOST
  1

  9
$DIMAPOST
  1

  9
$DIMALT
 70
     0
  9
$DIMALTD
 70
     2
  9
$DIMALTF
 40
25.4
  9
$DIMLFAC
 40
1.0
  9
$DIMTOFL
 70
     0
  9
$DIMTVP
 40
0.0
  9
$DIMTIX
 70
     0
  9
$DIMSOXD
 70
     0
  9
$DIMSAH
 70
     0
  9
$DIMBLK1
  1

  9
$DIMBLK2
  1

  9
$DIMSTYLE
  2
Standard
  9
$DIMCLRD
 70
     0
  9
$DIMCLRE
 70
     0
  9
$DIMCLRT
 70
     0
  9
$DIMTFAC
 40
1.0
  9
$DIMGAP
 40
0.09
  9
$DIMJUST
 70
     0
  9
$DIMSD1
 70
     0
  9
$DIMSD2
 70
     0
  9
$DIMTOLJ
 70
     1
  9
$DIMTZIN
 70
     0
  9
$DIMALTZ
 70
     0
  9
$DIMALTTZ
 70
     0
  9
$DIMUPT
 70
     0
  9
$DIMDEC
 70
     4
  9
$DIMTDEC
 70
     4
  9
$DIMALTU
 70
     2
  9
$DIMALTTD
 70
     2
  9
$DIMTXSTY
  7
Standard
  9
$DIMAUNIT
 70
     0
  9
$DIMADEC
 70
     0
  9
$DIMALTRND
 40
0.0
  9
$DIMAZIN
 70
     0
  9
$DIMDSEP
 70
     0
  9
$DIMATFIT
 70
     3
  9
$DIMFRAC
 70
     0
  9
$DIMLDRBLK
  1

  9
$DIMLUNIT
 70
     2
  9
$DIMLWD
 70
     0
  9
$DIMLWE
 70
     0
  9
$DIMTMOVE
 70
     0
  9
$LUNITS
 70
     2
  9
$LUPREC
 70
     4
  9
$SKETCHINC
 40
0.1
  9
$FILLETRAD
 40
0.0
  9
$AUNITS
 70
     0
  9
$AUPREC
 70
     0
  9
$MENU
  1
acad
  9
$ELEVATION
 40
0.0
  9
$PELEVATION
 40
0.0
  9
$THICKNESS
 40
0.0
  9
$LIMCHECK
 70
     0
  9
$CHAMFERA
 40
0.0
  9
$CHAMFERB
 40
0.0
  9
$CHAMFERC
 40
0.0
  9
$CHAMFERD
 40
0.0
  9
$SKPOLY
 70
     0
  9
$TDCREATE
 40
0.000000000
  9
$TDUCREATE
 40
0.000000000
  9
$TDUPDATE
 40
0.000000000
  9
$TDUUPDATE
 40
0.000000000
  9
$TDINDWG
 40
0.0000000000
  9
$TDUSRTIMER
 40
0.0000000000
  9
$USRTIMER
 70
     1
  9
$ANGBASE
 50
0.0
  9
$ANGDIR
 70
     0
  9
$PDMODE
 70
     0
  9
$PDSIZE
 40
0.0
  9
$PLINEWID
 40
0.0
  9
$SPLFRAME
 70
     0
  9
$SPLINETYPE
 70
     6
  9
$SPLINESEGS
 70
     8
  9
$HANDSEED
  5
243
  9
$SURFTAB1
 70
     6
  9
$SURFTAB2
 70
     6
  9
$SURFTYPE
 70
     6
  9
$SURFU
 70
     6
  9
$SURFV
 70
     6
  9
$UCSBASE
  2

  9
$UCSNAME
  2

  9
$UCSORG
 10
0.0
 20
0.0
 30
0.0
  9
$UCSXDIR
 10
1.0
 20
0.0
 30
0.0
  9
$UCSYDIR
 10
0.0
 20
1.0
 30
0.0
  9
$UCSORTHOREF
  2

  9
$UCSORTHOVIEW
 70
     0
  9
$UCSORGTOP
 10
0.0
 20
0.0
 30
0.0
  9
$UCSORGBOTTOM
 10
0.0
 20
0.0
 30
0.0
  9
$UCSORGLEFT
 10
0.0
 20
0.0
 30
0.0
  9
$UCSORGRIGHT
 10
0.0
 20
0.0
 30
0.0
  9
$UCSORGFRONT
 10
0.0
 20
0.0
 30
0.0
  9
$UCSORGBACK
 10
0.0
 20
0.0
 30
0.0
  9
$PUCSBASE
  2

  9
$PUCSNAME
  2

  9
$PUCSORG
 10
0.0
 20
0.0
 30
0.0
  9
$PUCSXDIR
 10
1.0
 20
0.0
 30
0.0
  9
$PUCSYDIR
 10
0.0
 20
1.0
 30
0.0
  9
$PUCSORTHOREF
  2

  9
$PUCSORTHOVIEW
 70
     0
  9
$PUCSORGTOP
 10
0.0
 20
0.0
 30
0.0
  9
$PUCSORGBOTTOM
 10
0.0
 20
0.0
 30
0.0
  9
$PUCSORGLEFT
 10
0.0
 20
0.0
 30
0.0
  9
$PUCSORGRIGHT
 10
0.0
 20
0.0
 30
0.0
  9
$PUCSORGFRONT
 10
0.0
 20
0.0
 30
0.0
  9
$PUCSORGBACK
 10
0.0
 20
0.0
 30
0.0
  9
$USERI1
 70
     0
  9
$USERI2
 70
     0
  9
$USERI3
 70
     0
  9
$USERI4
 70
     0
  9
$USERI5
 70
     0
  9
$USERR1
 40
0.0
  9
$USERR2
 40
0.0
  9
$USERR3
 40
0.0
  9
$USERR4
 40
0.0
  9
$USERR5
 40
0.0
  9
$WORLDVIEW
 70
     1
  9
$SHADEDGE
 70
     3
  9
$SHADEDIF
 70
    70
  9
$TILEMODE
 70
     1
  9
$MAXACTVP
 70
    16
  9
$PINSBASE
 10
0.0
 20
0.0
 30
0.0
  9
$PLIMCHECK
 70
     0
  9
$PEXTMIN
 10
1.000000E+20
 20
1.000000E+20
 30
1.000000E+20
  9
$PEXTMAX
 10
-1.000000E+20
 20
-1.000000E+20
 30
-1.000000E+20
  9
$PLIMMIN
 10
0.0
 20
0.0
  9
$PLIMMAX
 10
12.0
 20
9.0
  9
$UNITMODE
 70
     0
  9
$VISRETAIN
 70
     0
  9
$PLINEGEN
 70
     1
  9
$PSLTSCALE
 70
     0
  9
$TREEDEPTH
 70
  3020
  9
$CMLSTYLE
  2
Standard
  9
$CMLJUST
 70
     0
  9
$CMLSCALE
 40
1.0
  9
$PROXYGRAPHICS
 70
     0
  9
$MEASUREMENT
 70
     0
  9
$CELWEIGHT
370
     0
  9
$ENDCAPS
280
     0
  9
$JOINSTYLE
280
     0
  9
$LWDISPLAY
290
     0
  9
$INSUNITS
 70
     0
  9
$HYPERLINKBASE
  1

  9
$XEDIT
290
     1
  9
$CEPSNTYPE
380
     0
  9
$PSTYLEMODE
290
     1
  9
$FINGERPRINTGUID
  2

  9
$VERSIONGUID
  2

  9
$EXTNAMES
290
     1
  9
$PSVPSCALE
 40
0.0
  0
ENDSEC
  0
SECTION
  2
CLASSES
  0
CLASS
  1
LWPOLYLINE
  2
AcDbPolyline
  3
"AutoCAD"
 90
        0
280
     0
281
     1
  0
CLASS
  1
IMAGE
  2
AcDbRasterImage
  3
ISM
 90
      127
280
     0
281
     1
  0
CLASS
  1
OLE2FRAME
  2
AcDbOle2Frame
  3
""
 90
        0
280
     0
281
     1
  0
CLASS
  1
HATCH
  2
AcDbHatch
  3
"ACAD_SEDONA"
 90
        0
280
     0
281
     1
  0
CLASS
  1
DICTIONARYVAR
  2
AcDbDictionaryVar
  3
"AutoCAD"
 90
        0
280
     0
281
     0
  0
CLASS
  1
RASTERVARIABLES
  2
AcDbRasterVariables
  3
ISM
 90
        0
280
     0
281
     0
  0
CLASS
  1
IMAGEDEF
  2
AcDbRasterImageDef
  3
ISM
 90
        0
280
     0
281
     0
  0
CLASS
  1
IMAGEDEF_REACTOR
  2
AcDbRasterImageDefReactor
  3
ISM
 90
        1
280
     0
281
     0
  0
CLASS
  1
IDBUFFER
  2
AcDbIdBuffer
  3
"Acad"
 90
        0
280
     0
281
     0
  0
CLASS
  1
SPATIAL_FILTER
  2
AcDbSpatialFilter
  3
"Acad"
 90
        0
280
     0
281
     0
  0
CLASS
  1
XRECORD
  2
AcDbXrecord
  3
"<Built In>"
 90
        0
280
     0
281
     0
  0
CLASS
  1
SORTENTSTABLE
  2
AcDbSortentsTable
  3
"AutoCAD"
 90
        0
280
     0
281
     0
  0
CLASS
  1
LAYER_INDEX
  2
AcDbLayerIndex
  3
"Acad"
 90
        0
280
     0
281
     0
  0
CLASS
  1
SPATIAL_INDEX
  2
AcDbSpatialIndex
  3
"Acad"
 90
        0
280
     0
281
     0
  0
CLASS
  1
OBJECT_PTR
  2
CAseDLPNTableRecord
  3
"ASE-LPNTableRecord"
 90
        1
280
     0
281
     0
  0
CLASS
  1
LAYOUT
  2
AcDbLayout
  3
"AutoCAD 2000"
 90
        1
280
     0
281
     0
  0
CLASS
  1
PLOTSETTINGS
  2
AcDbPlotSettings
  3
"AutoCAD 2000"
 90
        1
280
     0
281
     0
  0
CLASS
  1
ACDBDICTIONARYWDFLT
  2
AcDbDictionaryWithDefault
  3
"AutoCAD 2000"
 90
        1
280
     0
281
     0
  0
CLASS
  1
ACDBPLACEHOLDER
  2
AcDbPlaceHolder
  3
"AutoCAD 2000"
 90
        1
280
     0
281
     0
  0
CLASS
  1
VBA_PROJECT
  2
AcDbVbaProject
  3
"acadvba"
 90
        1
280
     0
281
     0
  0
CLASS
  1
WIPEOUT
  2
AcDbWipeout
  3
WipeOut|AutoCAD Express Tool|expresstools@autodesk.com
 90
      127
280
     0
281
     1
  0
CLASS
  1
WIPEOUTVARIABLES
  2
AcDbWipeoutVariables
  3
WipeOut|AutoCAD Express Tool|expresstools@autodesk.com
 90
        0
280
     0
281
     0
  0
CLASS
  1
RTEXT
  2
RText
  3
RText|AutoCAD Express Tool|expresstools@autodesk.com
 90
        0
280
     0
281
     1
  0
CLASS
  1
ARCALIGNEDTEXT
  2
AcDbArcAlignedText
  3
ATEXT|AutoCAD Express Tool|expresstools@autodesk.com
 90
        0
280
     0
281
     1
  0
ENDSEC
  0
SECTION
  2
TABLES
  0
TABLE
  2
VPORT
  5
7
100
AcDbSymbolTable
 70
     1
  0
VPORT
  5
15
100
AcDbSymbolTableRecord
100
AcDbViewportTableRecord
  2
*ACTIVE
 70
     0
 10
0.0
 20
0.0
 11
1.0
 21
1.0
 12
6.591288
 22
4.579184
 13
0.0
 23
0.0
 14
1.0
 24
1.0
 15
0.0
 25
0.0
 16
0.0
 26
0.0
 36
1.0
 17
0.0
 27
0.0
 37
0.0
 40
9.158369
 41
0.688564
 42
50.0
 43
0.0
 44
0.0
 50
0.0
 51
0.0
 71
     0
 72
   100
 73
     1
 74
     1
 75
     0
 76
     0
 77
     0
 78
     0
281
     0
 65
     0
110
0.0
120
0.0
130
0.0
111
1.0
121
0.0
131
0.0
112
0.0
122
1.0
132
0.0
345
0
346
0
 79
     0
146
0.0
  0
ENDTAB
  0
TABLE
  2
LTYPE
  5
4
100
AcDbSymbolTable
 70
     4
  0
LTYPE
  5
11
100
AcDbSymbolTableRecord
100
AcDbLinetypeTableRecord
  2
ByBlock
 70
    64
  3

 72
    65
 73
     0
 40
0.0
  0
LTYPE
  5
12
100
AcDbSymbolTableRecord
100
AcDbLinetypeTableRecord
  2
ByLayer
 70
    64
  3

 72
    65
 73
     0
 40
0.0
  0
LTYPE
  5
13
100
AcDbSymbolTableRecord
100
AcDbLinetypeTableRecord
  2
Continuous
 70
    64
  3
Solid line
 72
    65
 73
     0
 40
0.0
  0
LTYPE
  5
15F
100
AcDbSymbolTableRecord
100
AcDbLinetypeTableRecord
  2
AI9-LType1
 70
    64
  3
Illustrator Dash Style No.1
 72
    65
 73
     2
 40
1.367367
 49
0.911578
 74
     0
 49
-0.455789
 74
     0
  0
ENDTAB
  0
TABLE
  2
LAYER
  5
2
100
AcDbSymbolTable
 70
     4
  0
LAYER
  5
14
100
AcDbSymbolTableRecord
100
AcDbLayerTableRecord
  2
0
 70
     0
 62
     7
  6
Continuous
290
     1
370
    -3
390
1D
  0
LAYER
  5
28
100
AcDbSymbolTableRecord
100
AcDbLayerTableRecord
  2
レイヤー_1
 70
     0
 62
   160
  6
Continuous
290
     1
370
    -3
390
1F
  0
LAYER
  5
29
100
AcDbSymbolTableRecord
100
AcDbLayerTableRecord
  2
0
 70
     0
 62
     7
  6
Continuous
290
     1
370
    -3
390
1F
  0
LAYER
  5
2A
100
AcDbSymbolTableRecord
100
AcDbLayerTableRecord
  2
LAYER_1
 70
     0
 62
     7
  6
Continuous
290
     1
370
    -3
390
1F
  0
ENDTAB
  0
TABLE
  2
STYLE
  5
3
100
AcDbSymbolTable
 70
     5
  0
STYLE
  5
17
100
AcDbSymbolTableRecord
100
AcDbTextStyleTableRecord
  2
Standard
 70
     0
 40
0.0
 41
1.0
 50
0.0
 71
     0
 42
0.0
  3
txt
  4

  0
STYLE
  5
24
100
AcDbSymbolTableRecord
100
AcDbTextStyleTableRecord
  2
STD
 70
     0
 40
0.0
 41
1.0
 50
0.0
 71
     0
 42
0.0
  3
txt
  4

  0
STYLE
  5
25
100
AcDbSymbolTableRecord
100
AcDbTextStyleTableRecord
  2
TATESTD
 70
     4
 40
0.0
 41
1.0
 50
0.0
 71
     0
 42
0.0
  3
txt
  4

  0
STYLE
  5
26
100
AcDbSymbolTableRecord
100
AcDbTextStyleTableRecord
  2
KANJISTD
 70
     0
 40
0.0
 41
1.0
 50
0.0
 71
     0
 42
0.0
  3
txt
  4
extfont
  0
STYLE
  5
27
100
AcDbSymbolTableRecord
100
AcDbTextStyleTableRecord
  2
KANJITATE
 70
     4
 40
0.0
 41
1.0
 50
0.0
 71
     0
 42
0.0
  3
txt
  4
extfont
  0
ENDTAB
  0
TABLE
  2
VIEW
  5
5
100
AcDbSymbolTable
 70
     0
  0
ENDTAB
  0
TABLE
  2
UCS
  5
6
100
AcDbSymbolTable
 70
     0
  0
ENDTAB
  0
TABLE
  2
APPID
  5
8
100
AcDbSymbolTable
 70
     1
  0
APPID
  5
16
100
AcDbSymbolTableRecord
100
AcDbRegAppTableRecord
  2
ACAD
 70
     0
  0
ENDTAB
  0
TABLE
  2
DIMSTYLE
  5
9
100
AcDbSymbolTable
 70
     1
100
AcDbDimStyleTable
 71
     0
  0
DIMSTYLE
105
18
100
AcDbSymbolTableRecord
100
AcDbDimStyleTableRecord
  2
Standard
 70
     0
  3

  4

 40
1.0
 41
0.18
 42
0.0625
 43
0.38
 44
0.18
 45
0.0
 46
0.0
 47
0.0
 48
0.0
 71
     0
 72
     0
 73
     1
 74
     1
 75
     0
 76
     0
 77
     0
 78
     0
 79
     0
140
0.18
141
0.09
142
0.0
143
25.4
144
1.0
145
0.0
146
1.0
147
0.09
148
0.0
170
     0
171
     2
172
     0
173
     0
174
     0
175
     0
176
     0
177
     0
178
     0
179
     0
271
     4
272
     4
273
     2
274
     2
275
     0
276
     0
277
     2
278
    46
279
     0
280
     0
281
     0
282
     0
283
     1
284
     0
285
     0
286
     0
288
     0
340
17
341
0
342
0
343
0
344
0
371
    -2
372
    -2
  0
ENDTAB
  0
TABLE
  2
BLOCK_RECORD
  5
1
100
AcDbSymbolTable
 70
     1
  0
BLOCK_RECORD
  5
A
100
AcDbSymbolTableRecord
100
AcDbBlockTableRecord
  2
*MODEL_SPACE
340
20
  0
BLOCK_RECORD
  5
B
100
AcDbSymbolTableRecord
100
AcDbBlockTableRecord
  2
*PAPER_SPACE
340
21
  0
BLOCK_RECORD
  5
FA
100
AcDbSymbolTableRecord
100
AcDbBlockTableRecord
  2
AI9-BLK1
340
0
  0
ENDTAB
  0
ENDSEC
  0
SECTION
  2
BLOCKS
  0
BLOCK
  5
D
100
AcDbEntity
  8
0
100
AcDbBlockBegin
  2
*MODEL_SPACE
 70
     0
 10
0.0
 20
0.0
 30
0.0
  3
*MODEL_SPACE
  1

  0
ENDBLK
  5
E
100
AcDbEntity
  8
0
100
AcDbBlockEnd
  0
BLOCK
  5
F
100
AcDbEntity
 67
     1
  8
0
100
AcDbBlockBegin
  2
*PAPER_SPACE
 70
     0
 10
0.0
 20
0.0
 30
0.0
  3
*PAPER_SPACE
  1

  0
ENDBLK
  5
10
100
AcDbEntity
 67
     1
  8
0
100
AcDbBlockEnd
  0
BLOCK
  5
FC
100
AcDbEntity
  8
LAYER_1
 62
     7
100
AcDbBlockBegin
  2
AI9-BLK1
 70
     0
 10
0.0
 20
0.0
 30
0.0
  3
AI9-BLK1
  1

  0
SPLINE
  5
108
100
AcDbEntity
  8
LAYER_1
 62
     7
100
AcDbSpline
210
0.0
220
0.0
230
1.0
 70
     8
 71
     3
 72
    17
 73
    13
 74
     0
 42
0.00000001
 43
0.00000001
 40
0.0
 40
0.0
 40
0.0
 40
0.0
 40
1.0
 40
1.0
 40
1.0
 40
2.0
 40
2.0
 40
2.0
 40
3.0
 40
3.0
 40
3.0
 40
4.0
 40
4.0
 40
4.0
 40
4.0
 10
52.784288872612841
 20
3.9747789171006942
 30
0.0
 10
53.020966932508678
 20
4.1291191948784718
 30
0.0
 10
53.156703694661452
 20
4.3981811523437493
 30
0.0
 10
53.139478217230895
 20
4.6803344726562495
 30
0.0
 10
53.062652587890618
 20
5.0499932183159721
 30
0.0
 10
52.728133816189228
 20
5.3080308702256938
 30
0.0
 10
52.351240370008675
 20
5.2887383355034716
 30
0.0
 10
51.981926133897566
 20
5.212257215711805
 30
0.0
 10
51.723543972439231
 20
4.8777384440104159
 30
0.0
 10
51.742836507161456
 20
4.5008449978298604
 30
0.0
 10
51.912679714626734
 20
4.0926011827256943
 30
0.0
 10
52.354685465494789
 20
3.8693589952256939
 30
0.0
 10
52.784288872612841
 20
3.9747789171006942
 30
0.0
  0
SPLINE
  5
107
100
AcDbEntity
  8
LAYER_1
 62
     7
100
AcDbSpline
210
0.0
220
0.0
230
1.0
 70
     8
 71
     3
 72
    17
 73
    13
 74
     0
 42
0.00000001
 43
0.00000001
 40
0.0
 40
0.0
 40
0.0
 40
0.0
 40
1.0
 40
1.0
 40
1.0
 40
2.0
 40
2.0
 40
2.0
 40
3.0
 40
3.0
 40
3.0
 40
4.0
 40
4.0
 40
4.0
 40
4.0
 10
43.740224202473954
 20
3.9747789171006942
 30
0.0
 10
43.976902262369791
 20
4.1291191948784718
 30
0.0
 10
44.112639024522565
 20
4.3981811523437493
 30
0.0
 10
44.095413547092008
 20
4.6803344726562495
 30
0.0
 10
44.018932427300342
 20
5.0499932183159721
 30
0.0
 10
43.684069146050341
 20
5.3080308702256938
 30
0.0
 10
43.307175699869788
 20
5.2887383355034716
 30
0.0
 10
42.937516954210068
 20
5.2126017252604164
 30
0.0
 10
42.678445773654509
 20
4.8777384440104159
 30
0.0
 10
42.697393798828124
 20
4.5008449978298604
 30
0.0
 10
42.867581515842012
 20
4.0922566731770829
 30
0.0
 10
43.310620795355902
 20
3.8690144856770829
 30
0.0
 10
43.740224202473954
 20
3.9747789171006942
 30
0.0
  0
SPLINE
  5
106
100
AcDbEntity
  8
LAYER_1
 62
     7
100
AcDbSpline
210
0.0
220
0.0
230
1.0
 70
     8
 71
     3
 72
    17
 73
    13
 74
     0
 42
0.00000001
 43
0.00000001
 40
0.0
 40
0.0
 40
0.0
 40
0.0
 40
1.0
 40
1.0
 40
1.0
 40
2.0
 40
2.0
 40
2.0
 40
3.0
 40
3.0
 40
3.0
 40
4.0
 40
4.0
 40
4.0
 40
4.0
 10
34.696159532335066
 20
3.9747789171006942
 30
0.0
 10
34.932837592230896
 20
4.1291191948784718
 30
0.0
 10
35.068574354383678
 20
4.3981811523437493
 30
0.0
 10
35.051348876953121
 20
4.6803344726562495
 30
0.0
 10
34.974867757161455
 20
5.0499932183159721
 30
0.0
 10
34.640004475911454
 20
5.3080308702256938
 30
0.0
 10
34.263455539279512
 20
5.2887383355034716
 30
0.0
 10
33.893452284071181
 20
5.2126017252604164
 30
0.0
 10
33.634381103515622
 20
4.8777384440104159
 30
0.0
 10
33.653329128689236
 20
4.5008449978298604
 30
0.0
 10
33.823861355251736
 20
4.0922566731770829
 30
0.0
 10
34.266211615668396
 20
3.8690144856770829
 30
0.0
 10
34.696159532335066
 20
3.9747789171006942
 30
0.0
  0
SPLINE
  5
105
100
AcDbEntity
  8
LAYER_1
 62
     7
100
AcDbSpline
210
0.0
220
0.0
230
1.0
 70
     8
 71
     3
 72
    17
 73
    13
 74
     0
 42
0.00000001
 43
0.00000001
 40
0.0
 40
0.0
 40
0.0
 40
0.0
 40
1.0
 40
1.0
 40
1.0
 40
2.0
 40
2.0
 40
2.0
 40
3.0
 40
3.0
 40
3.0
 40
4.0
 40
4.0
 40
4.0
 40
4.0
 10
25.652094862196179
 20
3.9747789171006942
 30
0.0
 10
25.889117431640624
 20
4.1291191948784718
 30
0.0
 10
26.024509684244791
 20
4.3981811523437493
 30
0.0
 10
26.007284206814234
 20
4.6803344726562495
 30
0.0
 10
25.930803087022568
 20
5.0499932183159721
 30
0.0
 10
25.596284315321178
 20
5.3080308702256938
 30
0.0
 10
25.219390869140621
 20
5.2887383355034716
 30
0.0
 10
24.84938761393229
 20
5.2126017252604164
 30
0.0
 10
24.590660942925346
 20
4.8777384440104159
 30
0.0
 10
24.609608968098957
 20
4.5008449978298604
 30
0.0
 10
24.779796685112846
 20
4.0922566731770829
 30
0.0
 10
25.222491455078124
 20
3.8690144856770829
 30
0.0
 10
25.652094862196179
 20
3.9747789171006942
 30
0.0
  0
SPLINE
  5
104
100
AcDbEntity
  8
LAYER_1
 62
     7
100
AcDbSpline
210
0.0
220
0.0
230
1.0
 70
     8
 71
     3
 72
    17
 73
    13
 74
     0
 42
0.00000001
 43
0.00000001
 40
0.0
 40
0.0
 40
0.0
 40
0.0
 40
1.0
 40
1.0
 40
1.0
 40
2.0
 40
2.0
 40
2.0
 40
3.0
 40
3.0
 40
3.0
 40
4.0
 40
4.0
 40
4.0
 40
4.0
 10
16.608030192057289
 20
3.9747789171006942
 30
0.0
 10
16.844708251953122
 20
4.1291191948784718
 30
0.0
 10
16.9804450141059
 20
4.3981811523437493
 30
0.0
 10
16.963564046223958
 20
4.6803344726562495
 30
0.0
 10
16.886738416883681
 20
5.0499932183159721
 30
0.0
 10
16.552219645182291
 20
5.3080308702256938
 30
0.0
 10
16.175326199001734
 20
5.2887383355034716
 30
0.0
 10
15.805322943793401
 20
5.2126017252604164
 30
0.0
 10
15.546596272786458
 20
4.8777384440104159
 30
0.0
 10
15.565544297960068
 20
4.5008449978298604
 30
0.0
 10
15.735732014973957
 20
4.0922566731770829
 30
0.0
 10
16.178426784939234
 20
3.8690144856770829
 30
0.0
 10
16.608030192057289
 20
3.9747789171006942
 30
0.0
  0
SPLINE
  5
103
100
AcDbEntity
  8
LAYER_1
 62
     7
100
AcDbSpline
210
0.0
220
0.0
230
1.0
 70
     8
 71
     3
 72
    17
 73
    13
 74
     0
 42
0.00000001
 43
0.00000001
 40
0.0
 40
0.0
 40
0.0
 40
0.0
 40
1.0
 40
1.0
 40
1.0
 40
2.0
 40
2.0
 40
2.0
 40
3.0
 40
3.0
 40
3.0
 40
4.0
 40
4.0
 40
4.0
 40
4.0
 10
2.167223442925347
 20
4.0033732096354164
 30
0.0
 10
2.4042460123697915
 20
4.157368977864583
 30
0.0
 10
2.5399827745225694
 20
4.426775444878472
 30
0.0
 10
2.5227572970920136
 20
4.7085842556423607
 30
0.0
 10
2.445931667751736
 20
5.0782430013020825
 30
0.0
 10
2.1114128960503469
 20
5.3366251627604164
 30
0.0
 10
1.7345194498697916
 20
5.3173326280381943
 30
0.0
 10
1.3652052137586805
 20
5.2405069986979163
 30
0.0
 10
1.1068230523003471
 20
4.9059882269965271
 30
0.0
 10
1.1261155870225694
 20
4.5290947808159716
 30
0.0
 10
1.295958794487847
 20
4.1211954752604161
 30
0.0
 10
1.7379645453559027
 20
3.8976087782118052
 30
0.0
 10
2.167223442925347
 20
4.0033732096354164
 30
0.0
  0
SPLINE
  5
102
100
AcDbEntity
  8
LAYER_1
 62
     7
100
AcDbSpline
210
0.0
220
0.0
230
1.0
 70
     8
 71
     3
 72
    17
 73
    13
 74
     0
 42
0.00000001
 43
0.00000001
 40
0.0
 40
0.0
 40
0.0
 40
0.0
 40
1.0
 40
1.0
 40
1.0
 40
2.0
 40
2.0
 40
2.0
 40
3.0
 40
3.0
 40
3.0
 40
4.0
 40
4.0
 40
4.0
 40
4.0
 10
-6.8764967176649296
 20
4.0033732096354164
 30
0.0
 10
-6.639818657769097
 20
4.157368977864583
 30
0.0
 10
-6.5040818956163191
 20
4.426775444878472
 30
0.0
 10
-6.5213073730468745
 20
4.7085842556423607
 30
0.0
 10
-6.5977884928385411
 20
5.0782430013020825
 30
0.0
 10
-6.9326517740885407
 20
5.3366251627604164
 30
0.0
 10
-7.3095452202690963
 20
5.3173326280381943
 30
0.0
 10
-7.6792039659288189
 20
5.2408515082465277
 30
0.0
 10
-7.9382751464843739
 20
4.9063327365451386
 30
0.0
 10
-7.9193271213107632
 20
4.5290947808159716
 30
0.0
 10
-7.7491394042968746
 20
4.1205064561631941
 30
0.0
 10
-7.3061001247829855
 20
3.8972642686631942
 30
0.0
 10
-6.8764967176649296
 20
4.0033732096354164
 30
0.0
  0
SPLINE
  5
101
100
AcDbEntity
  8
LAYER_1
 62
     7
100
AcDbSpline
210
0.0
220
0.0
230
1.0
 70
     8
 71
     3
 72
    17
 73
    13
 74
     0
 42
0.00000001
 43
0.00000001
 40
0.0
 40
0.0
 40
0.0
 40
0.0
 40
1.0
 40
1.0
 40
1.0
 40
2.0
 40
2.0
 40
2.0
 40
3.0
 40
3.0
 40
3.0
 40
4.0
 40
4.0
 40
4.0
 40
4.0
 10
-24.964626057942706
 20
4.0033732096354164
 30
0.0
 10
-24.727947998046872
 20
4.157368977864583
 30
0.0
 10
-24.592211235894094
 20
4.426775444878472
 30
0.0
 10
-24.609436713324651
 20
4.7085842556423607
 30
0.0
 10
-24.685917833116317
 20
5.0782430013020825
 30
0.0
 10
-25.020436604817707
 20
5.3366251627604164
 30
0.0
 10
-25.39733005099826
 20
5.3173326280381943
 30
0.0
 10
-25.767333306206595
 20
5.2408515082465277
 30
0.0
 10
-26.026059977213539
 20
4.9063327365451386
 30
0.0
 10
-26.007456461588539
 20
4.5290947808159716
 30
0.0
 10
-25.836924235026039
 20
4.1205064561631941
 30
0.0
 10
-25.394229465060761
 20
3.8972642686631942
 30
0.0
 10
-24.964626057942706
 20
4.0033732096354164
 30
0.0
  0
SPLINE
  5
100
100
AcDbEntity
  8
LAYER_1
 62
     7
100
AcDbSpline
210
0.0
220
0.0
230
1.0
 70
     8
 71
     3
 72
    17
 73
    13
 74
     0
 42
0.00000001
 43
0.00000001
 40
0.0
 40
0.0
 40
0.0
 40
0.0
 40
1.0
 40
1.0
 40
1.0
 40
2.0
 40
2.0
 40
2.0
 40
3.0
 40
3.0
 40
3.0
 40
4.0
 40
4.0
 40
4.0
 40
4.0
 10
-34.008518473307291
 20
4.0033732096354164
 30
0.0
 10
-33.771840413411454
 20
4.157368977864583
 30
0.0
 10
-33.636103651258679
 20
4.426775444878472
 30
0.0
 10
-33.653329128689236
 20
4.7085842556423607
 30
0.0
 10
-33.729982503255208
 20
5.0782430013020825
 30
0.0
 10
-34.064501274956591
 20
5.3366251627604164
 30
0.0
 10
-34.441394721137151
 20
5.3173326280381943
 30
0.0
 10
-34.811397976345482
 20
5.2408515082465277
 30
0.0
 10
-35.070124647352429
 20
4.9063327365451386
 30
0.0
 10
-35.051348876953121
 20
4.5290947808159716
 30
0.0
 10
-34.880988905164926
 20
4.1205064561631941
 30
0.0
 10
-34.438294135199648
 20
3.8972642686631942
 30
0.0
 10
-34.008518473307291
 20
4.0033732096354164
 30
0.0
  0
SPLINE
  5
FF
100
AcDbEntity
  8
LAYER_1
 62
     7
100
AcDbSpline
210
0.0
220
0.0
230
1.0
 70
     8
 71
     3
 72
    17
 73
    13
 74
     0
 42
0.00000001
 43
0.00000001
 40
0.0
 40
0.0
 40
0.0
 40
0.0
 40
1.0
 40
1.0
 40
1.0
 40
2.0
 40
2.0
 40
2.0
 40
3.0
 40
3.0
 40
3.0
 40
4.0
 40
4.0
 40
4.0
 40
4.0
 10
-43.053961181640624
 20
4.0033732096354164
 30
0.0
 10
-42.816766357421869
 20
4.1570244683159716
 30
0.0
 10
-42.680512830946178
 20
4.4264309353298605
 30
0.0
 10
-42.697393798828124
 20
4.7085842556423607
 30
0.0
 10
-42.774391682942706
 20
5.0785875108506939
 30
0.0
 10
-43.109427218967006
 20
5.336969672309027
 30
0.0
 10
-43.486665174696178
 20
5.3173326280381943
 30
0.0
 10
-43.856151665581592
 20
5.2405069986979163
 30
0.0
 10
-44.114706081814234
 20
4.9059882269965271
 30
0.0
 10
-44.095241292317702
 20
4.5290947808159716
 30
0.0
 10
-43.925398084852425
 20
4.1211954752604161
 30
0.0
 10
-43.483220079210064
 20
3.8976087782118052
 30
0.0
 10
-43.053961181640624
 20
4.0033732096354164
 30
0.0
  0
SPLINE
  5
FE
100
AcDbEntity
  8
LAYER_1
 62
     7
100
AcDbSpline
210
0.0
220
0.0
230
1.0
 70
     8
 71
     3
 72
    17
 73
    13
 74
     0
 42
0.00000001
 43
0.00000001
 40
0.0
 40
0.0
 40
0.0
 40
0.0
 40
1.0
 40
1.0
 40
1.0
 40
2.0
 40
2.0
 40
2.0
 40
3.0
 40
3.0
 40
3.0
 40
4.0
 40
4.0
 40
4.0
 40
4.0
 10
-52.097853597005205
 20
4.0033732096354164
 30
0.0
 10
-51.860831027560756
 20
4.1570244683159716
 30
0.0
 10
-51.724577501085065
 20
4.4264309353298605
 30
0.0
 10
-51.741286214192705
 20
4.7085842556423607
 30
0.0
 10
-51.818284098307288
 20
5.0785875108506939
 30
0.0
 10
-52.153491889105901
 20
5.336969672309027
 30
0.0
 10
-52.530729844835065
 20
5.3173326280381943
 30
0.0
 10
-52.900216335720479
 20
5.2405069986979163
 30
0.0
 10
-53.158598497178815
 20
4.9059882269965271
 30
0.0
 10
-53.139305962456589
 20
4.5290947808159716
 30
0.0
 10
-52.969290500217006
 20
4.1211954752604161
 30
0.0
 10
-52.527284749348951
 20
3.8976087782118052
 30
0.0
 10
-52.097853597005205
 20
4.0033732096354164
 30
0.0
  0
SPLINE
  5
FD
100
AcDbEntity
  8
LAYER_1
 62
     7
100
AcDbSpline
210
0.0
220
0.0
230
1.0
 70
     8
 71
     3
 72
    17
 73
    13
 74
     0
 42
0.00000001
 43
0.00000001
 40
0.0
 40
0.0
 40
0.0
 40
0.0
 40
1.0
 40
1.0
 40
1.0
 40
2.0
 40
2.0
 40
2.0
 40
3.0
 40
3.0
 40
3.0
 40
4.0
 40
4.0
 40
4.0
 40
4.0
 10
-1.0070875379774304
 20
-5.3173326280381943
 30
0.0
 10
-0.7704094780815971
 20
-5.1633368598090277
 30
0.0
 10
-0.6346727159288194
 20
-4.8935858832465273
 30
0.0
 10
-0.6518981933593749
 20
-4.6117770724826386
 30
0.0
 10
-0.7283793131510417
 20
-4.2424628363715273
 30
0.0
 10
-1.0628980848524305
 20
-3.9837361653645829
 30
0.0
 10
-1.4397915310329861
 20
-4.0033732096354164
 30
0.0
 10
-1.8094502766927081
 20
-4.079854329427083
 30
0.0
 10
-2.0678324381510413
 20
-4.4143731011284721
 30
0.0
 10
-2.0485399034288192
 20
-4.7912665473090277
 30
0.0
 10
-1.8783521864149304
 20
-5.1995103624131938
 30
0.0
 10
-1.4363464355468749
 20
-5.4227525499131941
 30
0.0
 10
-1.0070875379774304
 20
-5.3173326280381943
 30
0.0
  0
ENDBLK
  5
109
100
AcDbEntity
  8
LAYER_1
100
AcDbBlockEnd
  0
ENDSEC
  0
SECTION
  2
ENTITIES
  0
MTEXT
  5
242
100
AcDbEntity
  8
LAYER_1
 62
     7
100
AcDbMText
 10
24.888096
 20
122.493126
 30
0.0
 40
2.557429
 41
0.0
 71
     1
 72
     2
  1
\W0.50;\fMS Gothic|b0|i0|c128;水上400以上
  7
KANJISTD
210
0.0
220
0.0
230
1.0
 11
0.0
 21
1.0
 31
0.0
 73
     1
 44
1.0
  0
POLYLINE
  5
23C
100
AcDbEntity
  8
LAYER_1
 62
     7
100
AcDb2dPolyline
 66
     1
 10
0.0
 20
0.0
 30
0.0
  0
VERTEX
  5
23D
100
AcDbEntity
  8
LAYER_1
 62
     7
100
AcDbVertex
100
AcDb2dVertex
 10
41.229869
 20
173.375981
 30
0.0
  0
VERTEX
  5
23E
100
AcDbEntity
  8
LAYER_1
 62
     7
100
AcDbVertex
100
AcDb2dVertex
 10
28.011382
 20
173.375981
 30
0.0
  0
VERTEX
  5
23F
100
AcDbEntity
  8
LAYER_1
 62
     7
100
AcDbVertex
100
AcDb2dVertex
 10
28.011382
 20
88.797681
 30
0.0
  0
VERTEX
  5
240
100
AcDbEntity
  8
LAYER_1
 62
     7
100
AcDbVertex
100
AcDb2dVertex
 10
64.768829
 20
88.797681
 30
0.0
  0
SEQEND
  5
241
100
AcDbEntity
  8
LAYER_1
 62
     7
  0
POLYLINE
  5
237
100
AcDbEntity
  8
LAYER_1
 62
     7
100
AcDb2dPolyline
 66
     1
 10
0.0
 20
0.0
 30
0.0
  0
VERTEX
  5
238
100
AcDbEntity
  8
LAYER_1
 62
     7
100
AcDbVertex
100
AcDb2dVertex
 10
28.512816
 20
171.503743
 30
0.0
  0
VERTEX
  5
239
100
AcDbEntity
  8
LAYER_1
 62
     7
100
AcDbVertex
100
AcDb2dVertex
 10
28.011382
 20
173.375981
 30
0.0
  0
VERTEX
  5
23A
100
AcDbEntity
  8
LAYER_1
 62
     7
100
AcDbVertex
100
AcDb2dVertex
 10
27.510121
 20
171.503743
 30
0.0
  0
SEQEND
  5
23B
100
AcDbEntity
  8
LAYER_1
 62
     7
  0
POLYLINE
  5
232
100
AcDbEntity
  8
LAYER_1
 62
     7
100
AcDb2dPolyline
 66
     1
 10
0.0
 20
0.0
 30
0.0
  0
VERTEX
  5
233
100
AcDbEntity
  8
LAYER_1
 62
     7
100
AcDbVertex
100
AcDb2dVertex
 10
27.510121
 20
90.669746
 30
0.0
  0
VERTEX
  5
234
100
AcDbEntity
  8
LAYER_1
 62
     7
100
AcDbVertex
100
AcDb2dVertex
 10
28.011382
 20
88.797681
 30
0.0
  0
VERTEX
  5
235
100
AcDbEntity
  8
LAYER_1
 62
     7
100
AcDbVertex
100
AcDb2dVertex
 10
28.512816
 20
90.669746
 30
0.0
  0
SEQEND
  5
236
100
AcDbEntity
  8
LAYER_1
 62
     7
  0
MTEXT
  5
231
100
AcDbEntity
  8
LAYER_1
 62
     7
100
AcDbMText
 10
117.129801
 20
225.366707
 30
0.0
 40
4.018806
 41
0.0
 71
     1
 72
     2
  1
\W0.50;\fMS Gothic|b0|i0|c128;【断熱防水】
  7
KANJISTD
210
0.0
220
0.0
230
1.0
 11
1.000001
 21
0.0
 31
0.0
 73
     1
 44
1.0
  0
LINE
  5
230
100
AcDbEntity
  8
LAYER_1
 62
     7
100
AcDbLine
 10
51.726214
 20
175.976683
 30
0.0
 11
51.726214
 21
169.608424
 31
0.0
  0
MTEXT
  5
22F
100
AcDbEntity
  8
LAYER_1
 62
     7
100
AcDbMText
 10
19.818945
 20
217.845892
 30
0.0
 40
4.018806
 41
0.0
 71
     1
 72
     2
  1
\W0.50;\fMS Gothic|b0|i0|c128;金属笠木タイプ　取付金具一体化方式
  7
KANJISTD
210
0.0
220
0.0
230
1.0
 11
1.000001
 21
0.0
 31
0.0
 73
     1
 44
1.0
  0
POLYLINE
  5
229
100
AcDbEntity
  8
LAYER_1
 62
     7
100
AcDb2dPolyline
 66
     1
 10
0.0
 20
0.0
 30
0.0
 70
     1
  0
VERTEX
  5
22A
100
AcDbEntity
  8
LAYER_1
 62
     7
100
AcDbVertex
100
AcDb2dVertex
 10
114.642787
 20
220.568793
 30
0.0
  0
VERTEX
  5
22B
100
AcDbEntity
  8
LAYER_1
 62
     7
100
AcDbVertex
100
AcDb2dVertex
 10
114.642787
 20
231.363483
 30
0.0
  0
VERTEX
  5
22C
100
AcDbEntity
  8
LAYER_1
 62
     7
100
AcDbVertex
100
AcDb2dVertex
 10
9.203745
 20
231.363483
 30
0.0
  0
VERTEX
  5
22D
100
AcDbEntity
  8
LAYER_1
 62
     7
100
AcDbVertex
100
AcDb2dVertex
 10
9.203745
 20
220.568793
 30
0.0
  0
SEQEND
  5
22E
100
AcDbEntity
  8
LAYER_1
 62
     7
  0
MTEXT
  5
228
100
AcDbEntity
  8
LAYER_1
 62
     7
100
AcDbMText
 10
13.361458
 20
229.120452
 30
0.0
 40
5.114831
 41
0.0
 71
     1
 72
     2
  1
\W0.50;\fMS Gothic|b0|i0|c128;■乾式保護工法標準納まり詳細図
  7
KANJISTD
210
0.0
220
0.0
230
1.0
 11
1.000001
 21
0.0
 31
0.0
 73
     1
 44
1.0
  0
MTEXT
  5
227
100
AcDbEntity
  8
LAYER_1
 62
     7
100
AcDbMText
 10
4.938889
 20
67.916747
 30
0.0
 40
2.557429
 41
0.0
 71
     1
 72
     2
  1
\W0.50;\fMS Gothic|b0|i0|c128;(数字)は、参考寸法。
  7
KANJISTD
210
0.0
220
0.0
230
1.0
 11
1.000001
 21
0.0
 31
0.0
 73
     1
 44
1.0
  0
MTEXT
  5
226
100
AcDbEntity
  8
LAYER_1
 62
     7
100
AcDbMText
 10
63.753387
 20
203.20358
 30
0.0
 40
2.557429
 41
0.0
 71
     1
 72
     2
  1
\W0.50;\fMS Gothic|b0|i0|c128;ゴムアスファルト系シール材
  7
KANJISTD
210
0.0
220
0.0
230
1.0
 11
1.000001
 21
0.0
 31
0.0
 73
     1
 44
1.0
  0
MTEXT
  5
225
100
AcDbEntity
  8
LAYER_1
 62
     7
100
AcDbMText
 10
68.378772
 20
199.390893
 30
0.0
 40
2.557429
 41
0.0
 71
     1
 72
     2
  1
\W0.50;\fMS Gothic|b0|i0|c128;押え金物
  7
KANJISTD
210
0.0
220
0.0
230
1.0
 11
1.000001
 21
0.0
 31
0.0
 73
     1
 44
1.0
  0
SPLINE
  5
224
100
AcDbEntity
  8
LAYER_1
 62
     7
100
AcDbSpline
210
0.0
220
0.0
230
1.0
 70
     8
 71
     3
 72
    17
 73
    13
 74
     0
 42
0.00000001
 43
0.00000001
 40
0.0
 40
0.0
 40
0.0
 40
0.0
 40
1.0
 40
1.0
 40
1.0
 40
2.0
 40
2.0
 40
2.0
 40
3.0
 40
3.0
 40
3.0
 40
4.0
 40
4.0
 40
4.0
 40
4.0
 10
54.254569498697911
 20
175.44820556640624
 30
0.0
 10
54.329155815972214
 20
175.5152126736111
 30
0.0
 10
54.372219509548607
 20
175.61029730902777
 30
0.0
 10
54.373425292968747
 20
175.7105495876736
 30
0.0
 10
54.372391764322913
 20
175.90433620876735
 30
0.0
 10
54.215812174479161
 20
176.06143256293402
 30
0.0
 10
54.022025553385411
 20
176.06315511067706
 30
0.0
 10
53.827722167968744
 20
176.06177707248261
 30
0.0
 10
53.670798068576381
 20
175.90468071831594
 30
0.0
 10
53.669247775607637
 20
175.7105495876736
 30
0.0
 10
53.759853786892357
 20
175.4778333875868
 30
0.0
 10
54.02047526041666
 20
175.36104465060762
 30
0.0
 10
54.254569498697911
 20
175.44820556640624
 30
0.0
  0
LINE
  5
223
100
AcDbEntity
  8
LAYER_1
 62
     7
100
AcDbLine
 10
137.226766
 20
107.380526
 30
0.0
 11
142.41818
 21
107.380526
 31
0.0
  0
LINE
  5
222
100
AcDbEntity
  8
LAYER_1
 62
     7
100
AcDbLine
 10
145.754066
 20
107.380526
 30
0.0
 11
150.945481
 21
107.380526
 31
0.0
  0
LINE
  5
221
100
AcDbEntity
  8
LAYER_1
 62
     7
100
AcDbLine
 10
89.862215
 20
99.7176
 30
0.0
 11
89.862215
 21
94.75115
 31
0.0
  0
POLYLINE
  5
21C
100
AcDbEntity
  8
LAYER_1
 62
     7
100
AcDb2dPolyline
 66
     1
 10
0.0
 20
0.0
 30
0.0
  0
VERTEX
  5
21D
100
AcDbEntity
  8
LAYER_1
 62
     7
100
AcDbVertex
100
AcDb2dVertex
 10
139.370304
 20
98.255157
 30
0.0
  0
VERTEX
  5
21E
100
AcDbEntity
  8
LAYER_1
 62
     7
100
AcDbVertex
100
AcDb2dVertex
 10
132.55246
 20
110.346753
 30
0.0
  0
VERTEX
  5
21F
100
AcDbEntity
  8
LAYER_1
 62
     7
100
AcDbVertex
100
AcDb2dVertex
 10
130.349666
 20
110.346753
 30
0.0
  0
SEQEND
  5
220
100
AcDbEntity
  8
LAYER_1
 62
     7
  0
SPLINE
  5
21B
100
AcDbEntity
  8
LAYER_1
 62
     7
100
AcDbSpline
210
0.0
220
0.0
230
1.0
 70
     8
 71
     3
 72
    17
 73
    13
 74
     0
 42
0.00000001
 43
0.00000001
 40
0.0
 40
0.0
 40
0.0
 40
0.0
 40
1.0
 40
1.0
 40
1.0
 40
2.0
 40
2.0
 40
2.0
 40
3.0
 40
3.0
 40
3.0
 40
4.0
 40
4.0
 40
4.0
 40
4.0
 10
139.41681315104165
 20
97.886876085069431
 30
0.0
 10
139.2228542751736
 20
97.888598632812489
 30
0.0
 10
139.06644694010416
 20
98.045694986979157
 30
0.0
 10
139.06541341145831
 20
98.23965386284722
 30
0.0
 10
139.15567491319445
 20
98.472542317708331
 30
0.0
 10
139.41646864149305
 20
98.590020073784714
 30
0.0
 10
139.6507351345486
 20
98.50320366753472
 30
0.0
 10
139.72549370659721
 20
98.436024305555549
 30
0.0
 10
139.76855740017359
 20
98.340250651041657
 30
0.0
 10
139.76959092881944
 20
98.23965386284722
 30
0.0
 10
139.76821289062499
 20
98.045350477430546
 30
0.0
 10
139.61111653645833
 20
97.888254123263877
 30
0.0
 10
139.41681315104165
 20
97.886876085069431
 30
0.0
  0
POLYLINE
  5
216
100
AcDbEntity
  8
LAYER_1
 62
     7
100
AcDb2dPolyline
 66
     1
 10
0.0
 20
0.0
 30
0.0
  0
VERTEX
  5
217
100
AcDbEntity
  8
LAYER_1
 62
     7
100
AcDbVertex
100
AcDb2dVertex
 10
143.966062
 20
102.49917
 30
0.0
  0
VERTEX
  5
218
100
AcDbEntity
  8
LAYER_1
 62
     7
100
AcDbVertex
100
AcDb2dVertex
 10
135.914185
 20
116.576864
 30
0.0
  0
VERTEX
  5
219
100
AcDbEntity
  8
LAYER_1
 62
     7
100
AcDbVertex
100
AcDb2dVertex
 10
133.711391
 20
116.576864
 30
0.0
  0
SEQEND
  5
21A
100
AcDbEntity
  8
LAYER_1
 62
     7
  0
SPLINE
  5
215
100
AcDbEntity
  8
LAYER_1
 62
     7
100
AcDbSpline
210
0.0
220
0.0
230
1.0
 70
     8
 71
     3
 72
    17
 73
    13
 74
     0
 42
0.00000001
 43
0.00000001
 40
0.0
 40
0.0
 40
0.0
 40
0.0
 40
1.0
 40
1.0
 40
1.0
 40
2.0
 40
2.0
 40
2.0
 40
3.0
 40
3.0
 40
3.0
 40
4.0
 40
4.0
 40
4.0
 40
4.0
 10
144.01257052951388
 20
102.13226725260415
 30
0.0
 10
143.81895616319443
 20
102.1336452907986
 30
0.0
 10
143.66254882812498
 20
102.29039713541665
 30
0.0
 10
143.66117078993054
 20
102.48366699218749
 30
0.0
 10
143.75143229166665
 20
102.71689995659722
 30
0.0
 10
144.01188151041666
 20
102.8343777126736
 30
0.0
 10
144.2461480034722
 20
102.74721679687499
 30
0.0
 10
144.32125108506943
 20
102.68003743489582
 30
0.0
 10
144.36431477864582
 20
102.58460828993054
 30
0.0
 10
144.36534830729164
 20
102.48366699218749
 30
0.0
 10
144.3636257595486
 20
102.29005262586804
 30
0.0
 10
144.20618489583333
 20
102.13330078124999
 30
0.0
 10
144.01257052951388
 20
102.13226725260415
 30
0.0
  0
POLYLINE
  5
210
100
AcDbEntity
  8
LAYER_1
 62
     7
100
AcDb2dPolyline
 66
     1
 10
0.0
 20
0.0
 30
0.0
  0
VERTEX
  5
211
100
AcDbEntity
  8
LAYER_1
 62
     7
100
AcDbVertex
100
AcDb2dVertex
 10
78.967962
 20
107.731925
 30
0.0
  0
VERTEX
  5
212
100
AcDbEntity
  8
LAYER_1
 62
     7
100
AcDbVertex
100
AcDb2dVertex
 10
91.483649
 20
129.62344
 30
0.0
  0
VERTEX
  5
213
100
AcDbEntity
  8
LAYER_1
 62
     7
100
AcDbVertex
100
AcDb2dVertex
 10
93.686443
 20
129.62344
 30
0.0
  0
SEQEND
  5
214
100
AcDbEntity
  8
LAYER_1
 62
     7
  0
SPLINE
  5
20F
100
AcDbEntity
  8
LAYER_1
 62
     7
100
AcDbSpline
210
0.0
220
0.0
230
1.0
 70
     8
 71
     3
 72
    17
 73
    13
 74
     0
 42
0.00000001
 43
0.00000001
 40
0.0
 40
0.0
 40
0.0
 40
0.0
 40
1.0
 40
1.0
 40
1.0
 40
2.0
 40
2.0
 40
2.0
 40
3.0
 40
3.0
 40
3.0
 40
4.0
 40
4.0
 40
4.0
 40
4.0
 10
79.155375162760407
 20
107.45287272135415
 30
0.0
 10
79.230133734809016
 20
107.52005208333333
 30
0.0
 10
79.273197428385416
 20
107.61582573784722
 30
0.0
 10
79.274230957031236
 20
107.71642252604165
 30
0.0
 10
79.27233615451388
 20
107.91038140190972
 30
0.0
 10
79.115412055121524
 20
108.06678873697916
 30
0.0
 10
78.921453179253461
 20
108.067822265625
 30
0.0
 10
78.728011067708323
 20
108.06644422743055
 30
0.0
 10
78.571431477864579
 20
107.91003689236111
 30
0.0
 10
78.570053439670133
 20
107.71642252604165
 30
0.0
 10
78.660314941406241
 20
107.48318956163193
 30
0.0
 10
78.920936414930551
 20
107.36605631510416
 30
0.0
 10
79.155375162760407
 20
107.45287272135415
 30
0.0
  0
POLYLINE
  5
20A
100
AcDbEntity
  8
LAYER_1
 62
     7
100
AcDb2dPolyline
 66
     1
 10
0.0
 20
0.0
 30
0.0
  0
VERTEX
  5
20B
100
AcDbEntity
  8
LAYER_1
 62
     7
100
AcDbVertex
100
AcDb2dVertex
 10
70.479419
 20
103.638808
 30
0.0
  0
VERTEX
  5
20C
100
AcDbEntity
  8
LAYER_1
 62
     7
100
AcDbVertex
100
AcDb2dVertex
 10
91.198051
 20
139.973885
 30
0.0
  0
VERTEX
  5
20D
100
AcDbEntity
  8
LAYER_1
 62
     7
100
AcDbVertex
100
AcDb2dVertex
 10
93.402223
 20
139.973885
 30
0.0
  0
SEQEND
  5
20E
100
AcDbEntity
  8
LAYER_1
 62
     7
  0
SPLINE
  5
209
100
AcDbEntity
  8
LAYER_1
 62
     7
100
AcDbSpline
210
0.0
220
0.0
230
1.0
 70
     8
 71
     3
 72
    17
 73
    13
 74
     0
 42
0.00000001
 43
0.00000001
 40
0.0
 40
0.0
 40
0.0
 40
0.0
 40
1.0
 40
1.0
 40
1.0
 40
2.0
 40
2.0
 40
2.0
 40
3.0
 40
3.0
 40
3.0
 40
4.0
 40
4.0
 40
4.0
 40
4.0
 10
70.665626356336801
 20
103.35975477430554
 30
0.0
 10
70.74038492838541
 20
103.42693413628471
 30
0.0
 10
70.783448621961796
 20
103.52270779079861
 30
0.0
 10
70.78448215060763
 20
103.62330457899304
 30
0.0
 10
70.783276367187497
 20
103.81726345486111
 30
0.0
 10
70.626869032118051
 20
103.97435980902777
 30
0.0
 10
70.432910156249989
 20
103.97608235677082
 30
0.0
 10
70.238779025607627
 20
103.97470431857639
 30
0.0
 10
70.081682671440973
 20
103.81760796440972
 30
0.0
 10
70.080304633246527
 20
103.62330457899304
 30
0.0
 10
70.170566134982636
 20
103.39007161458332
 30
0.0
 10
70.431187608506931
 20
103.27293836805555
 30
0.0
 10
70.665626356336801
 20
103.35975477430554
 30
0.0
  0
POLYLINE
  5
204
100
AcDbEntity
  8
LAYER_1
 62
     7
100
AcDb2dPolyline
 66
     1
 10
0.0
 20
0.0
 30
0.0
  0
VERTEX
  5
205
100
AcDbEntity
  8
LAYER_1
 62
     7
100
AcDbVertex
100
AcDb2dVertex
 10
77.430416
 20
101.331283
 30
0.0
  0
VERTEX
  5
206
100
AcDbEntity
  8
LAYER_1
 62
     7
100
AcDbVertex
100
AcDb2dVertex
 10
89.944897
 20
123.223142
 30
0.0
  0
VERTEX
  5
207
100
AcDbEntity
  8
LAYER_1
 62
     7
100
AcDbVertex
100
AcDb2dVertex
 10
92.147692
 20
123.223142
 30
0.0
  0
SEQEND
  5
208
100
AcDbEntity
  8
LAYER_1
 62
     7
  0
SPLINE
  5
203
100
AcDbEntity
  8
LAYER_1
 62
     7
100
AcDbSpline
210
0.0
220
0.0
230
1.0
 70
     8
 71
     3
 72
    17
 73
    13
 74
     0
 42
0.00000001
 43
0.00000001
 40
0.0
 40
0.0
 40
0.0
 40
0.0
 40
1.0
 40
1.0
 40
1.0
 40
2.0
 40
2.0
 40
2.0
 40
3.0
 40
3.0
 40
3.0
 40
4.0
 40
4.0
 40
4.0
 40
4.0
 10
77.616623263888883
 20
101.05222981770832
 30
0.0
 10
77.691381835937491
 20
101.11975368923611
 30
0.0
 10
77.734445529513877
 20
101.21518283420139
 30
0.0
 10
77.735306803385413
 20
101.31577962239582
 30
0.0
 10
77.734273274739579
 20
101.50973849826389
 30
0.0
 10
77.577865939670133
 20
101.66683485243054
 30
0.0
 10
77.384079318576383
 20
101.6685574001736
 30
0.0
 10
77.189775933159709
 20
101.66717936197915
 30
0.0
 10
77.032679578993054
 20
101.5100830078125
 30
0.0
 10
77.031301540798609
 20
101.31577962239582
 30
0.0
 10
77.121563042534717
 20
101.08289116753471
 30
0.0
 10
77.382184516059027
 20
100.96541341145833
 30
0.0
 10
77.616623263888883
 20
101.05222981770832
 30
0.0
  0
POLYLINE
  5
1FE
100
AcDbEntity
  8
LAYER_1
 62
     7
100
AcDb2dPolyline
 66
     1
 10
0.0
 20
0.0
 30
0.0
  0
VERTEX
  5
1FF
100
AcDbEntity
  8
LAYER_1
 62
     7
100
AcDbVertex
100
AcDb2dVertex
 10
53.95743
 20
175.834573
 30
0.0
  0
VERTEX
  5
200
100
AcDbEntity
  8
LAYER_1
 62
     7
100
AcDbVertex
100
AcDb2dVertex
 10
66.414895
 20
198.248192
 30
0.0
  0
VERTEX
  5
201
100
AcDbEntity
  8
LAYER_1
 62
     7
100
AcDbVertex
100
AcDb2dVertex
 10
68.617689
 20
198.248192
 30
0.0
  0
SEQEND
  5
202
100
AcDbEntity
  8
LAYER_1
 62
     7
  0
POLYLINE
  5
1F9
100
AcDbEntity
  8
LAYER_1
 62
     7
100
AcDb2dPolyline
 66
     1
 10
0.0
 20
0.0
 30
0.0
  0
VERTEX
  5
1FA
100
AcDbEntity
  8
LAYER_1
 62
     7
100
AcDbVertex
100
AcDb2dVertex
 10
45.733815
 20
174.514068
 30
0.0
  0
VERTEX
  5
1FB
100
AcDbEntity
  8
LAYER_1
 62
     7
100
AcDbVertex
100
AcDb2dVertex
 10
61.249491
 20
201.734112
 30
0.0
  0
VERTEX
  5
1FC
100
AcDbEntity
  8
LAYER_1
 62
     7
100
AcDbVertex
100
AcDb2dVertex
 10
63.452458
 20
201.734112
 30
0.0
  0
SEQEND
  5
1FD
100
AcDbEntity
  8
LAYER_1
 62
     7
  0
SPLINE
  5
1F8
100
AcDbEntity
  8
LAYER_1
 62
     7
100
AcDbSpline
210
0.0
220
0.0
230
1.0
 70
     8
 71
     3
 72
    17
 73
    13
 74
     0
 42
0.00000001
 43
0.00000001
 40
0.0
 40
0.0
 40
0.0
 40
0.0
 40
1.0
 40
1.0
 40
1.0
 40
2.0
 40
2.0
 40
2.0
 40
3.0
 40
3.0
 40
3.0
 40
4.0
 40
4.0
 40
4.0
 40
4.0
 10
45.919849989149299
 20
174.23501519097221
 30
0.0
 10
45.994608561197914
 20
174.30236680772569
 30
0.0
 10
46.0376722547743
 20
174.39796820746525
 30
0.0
 10
46.038705783420134
 20
174.49856499565971
 30
0.0
 10
46.037327745225689
 20
174.69286838107638
 30
0.0
 10
45.880231391059027
 20
174.84996473524305
 30
0.0
 10
45.686100260416666
 20
174.85134277343749
 30
0.0
 10
45.49214138454861
 20
174.84962022569442
 30
0.0
 10
45.335561794704859
 20
174.69252387152775
 30
0.0
 10
45.334528266059024
 20
174.49856499565971
 30
0.0
 10
45.424789767795133
 20
174.26550428602428
 30
0.0
 10
45.685583496093749
 20
174.14819878472221
 30
0.0
 10
45.919849989149299
 20
174.23501519097221
 30
0.0
  0
POLYLINE
  5
1F3
100
AcDbEntity
  8
LAYER_1
 62
     7
100
AcDb2dPolyline
 66
     1
 10
0.0
 20
0.0
 30
0.0
  0
VERTEX
  5
1F4
100
AcDbEntity
  8
LAYER_1
 62
     7
100
AcDbVertex
100
AcDb2dVertex
 10
67.858046
 20
177.799655
 30
0.0
  0
VERTEX
  5
1F5
100
AcDbEntity
  8
LAYER_1
 62
     7
100
AcDbVertex
100
AcDb2dVertex
 10
76.992372
 20
193.994877
 30
0.0
  0
VERTEX
  5
1F6
100
AcDbEntity
  8
LAYER_1
 62
     7
100
AcDbVertex
100
AcDb2dVertex
 10
79.196544
 20
193.994877
 30
0.0
  0
SEQEND
  5
1F7
100
AcDbEntity
  8
LAYER_1
 62
     7
  0
SPLINE
  5
1F2
100
AcDbEntity
  8
LAYER_1
 62
     7
100
AcDbSpline
210
0.0
220
0.0
230
1.0
 70
     8
 71
     3
 72
    17
 73
    13
 74
     0
 42
0.00000001
 43
0.00000001
 40
0.0
 40
0.0
 40
0.0
 40
0.0
 40
1.0
 40
1.0
 40
1.0
 40
2.0
 40
2.0
 40
2.0
 40
3.0
 40
3.0
 40
3.0
 40
4.0
 40
4.0
 40
4.0
 40
4.0
 10
68.045458984374989
 20
177.52060275607639
 30
0.0
 10
68.120045301649299
 20
177.58795437282984
 30
0.0
 10
68.163281249999997
 20
177.68355577256943
 30
0.0
 10
68.164142523871519
 20
177.78415256076389
 30
0.0
 10
68.162764485677073
 20
177.97845594618053
 30
0.0
 10
68.005668131510404
 20
178.1355523003472
 30
0.0
 10
67.811537000868043
 20
178.13693033854165
 30
0.0
 10
67.617578124999994
 20
178.1352077907986
 30
0.0
 10
67.461170789930549
 20
177.97811143663193
 30
0.0
 10
67.460137261284714
 20
177.78415256076389
 30
0.0
 10
67.550398763020823
 20
177.55109185112846
 30
0.0
 10
67.811020236545133
 20
177.43378634982636
 30
0.0
 10
68.045458984374989
 20
177.52060275607639
 30
0.0
  0
POLYLINE
  5
1ED
100
AcDbEntity
  8
LAYER_1
 62
     7
100
AcDb2dPolyline
 66
     1
 10
0.0
 20
0.0
 30
0.0
  0
VERTEX
  5
1EE
100
AcDbEntity
  8
LAYER_1
 62
     7
100
AcDbVertex
100
AcDb2dVertex
 10
73.299919
 20
176.052992
 30
0.0
  0
VERTEX
  5
1EF
100
AcDbEntity
  8
LAYER_1
 62
     7
100
AcDbVertex
100
AcDb2dVertex
 10
80.771642
 20
189.122823
 30
0.0
  0
VERTEX
  5
1F0
100
AcDbEntity
  8
LAYER_1
 62
     7
100
AcDbVertex
100
AcDb2dVertex
 10
82.975814
 20
189.122823
 30
0.0
  0
SEQEND
  5
1F1
100
AcDbEntity
  8
LAYER_1
 62
     7
  0
SPLINE
  5
1EC
100
AcDbEntity
  8
LAYER_1
 62
     7
100
AcDbSpline
210
0.0
220
0.0
230
1.0
 70
     8
 71
     3
 72
    17
 73
    13
 74
     0
 42
0.00000001
 43
0.00000001
 40
0.0
 40
0.0
 40
0.0
 40
0.0
 40
1.0
 40
1.0
 40
1.0
 40
2.0
 40
2.0
 40
2.0
 40
3.0
 40
3.0
 40
3.0
 40
4.0
 40
4.0
 40
4.0
 40
4.0
 10
73.485953776041654
 20
175.77393934461804
 30
0.0
 10
73.560712348090277
 20
175.8411187065972
 30
0.0
 10
73.603948296440961
 20
175.93689236111109
 30
0.0
 10
73.604809570312497
 20
176.03731689453124
 30
0.0
 10
73.60308702256944
 20
176.23127577039929
 30
0.0
 10
73.445990668402771
 20
176.38785536024304
 30
0.0
 10
73.252031792534709
 20
176.38888888888889
 30
0.0
 10
73.05858968098957
 20
176.38751085069444
 30
0.0
 10
72.902182345920139
 20
176.23093126085067
 30
0.0
 10
72.900804307725693
 20
176.03731689453124
 30
0.0
 10
72.991065809461801
 20
175.80442843967012
 30
0.0
 10
73.251687282986111
 20
175.68695068359372
 30
0.0
 10
73.485953776041654
 20
175.77393934461804
 30
0.0
  0
POLYLINE
  5
1E7
100
AcDbEntity
  8
LAYER_1
 62
     7
100
AcDb2dPolyline
 66
     1
 10
0.0
 20
0.0
 30
0.0
  0
VERTEX
  5
1E8
100
AcDbEntity
  8
LAYER_1
 62
     7
100
AcDbVertex
100
AcDb2dVertex
 10
79.11145
 20
173.450911
 30
0.0
  0
VERTEX
  5
1E9
100
AcDbEntity
  8
LAYER_1
 62
     7
100
AcDbVertex
100
AcDb2dVertex
 10
84.465473
 20
182.904426
 30
0.0
  0
VERTEX
  5
1EA
100
AcDbEntity
  8
LAYER_1
 62
     7
100
AcDbVertex
100
AcDb2dVertex
 10
86.669645
 20
182.904426
 30
0.0
  0
SEQEND
  5
1EB
100
AcDbEntity
  8
LAYER_1
 62
     7
  0
SPLINE
  5
1E6
100
AcDbEntity
  8
LAYER_1
 62
     7
100
AcDbSpline
210
0.0
220
0.0
230
1.0
 70
     8
 71
     3
 72
    17
 73
    13
 74
     0
 42
0.00000001
 43
0.00000001
 40
0.0
 40
0.0
 40
0.0
 40
0.0
 40
1.0
 40
1.0
 40
1.0
 40
2.0
 40
2.0
 40
2.0
 40
3.0
 40
3.0
 40
3.0
 40
4.0
 40
4.0
 40
4.0
 40
4.0
 10
79.297485351562486
 20
173.17185872395831
 30
0.0
 10
79.372243923611109
 20
173.23903808593749
 30
0.0
 10
79.415307617187494
 20
173.33463948567706
 30
0.0
 10
79.416341145833329
 20
173.43523627387151
 30
0.0
 10
79.414963107638883
 20
173.62953965928818
 30
0.0
 10
79.257866753472214
 20
173.78663601345485
 30
0.0
 10
79.063563368055554
 20
173.7880140516493
 30
0.0
 10
78.869776746961804
 20
173.78629150390623
 30
0.0
 10
78.713197157118046
 20
173.62919514973956
 30
0.0
 10
78.712163628472211
 20
173.43523627387151
 30
0.0
 10
78.80242513020832
 20
173.20234781901041
 30
0.0
 10
79.06304660373263
 20
173.08487006293402
 30
0.0
 10
79.297485351562486
 20
173.17185872395831
 30
0.0
  0
POLYLINE
  5
1E1
100
AcDbEntity
  8
LAYER_1
 62
     7
100
AcDb2dPolyline
 66
     1
 10
0.0
 20
0.0
 30
0.0
  0
VERTEX
  5
1E2
100
AcDbEntity
  8
LAYER_1
 62
     7
100
AcDbVertex
100
AcDb2dVertex
 10
77.487432
 20
132.923497
 30
0.0
  0
VERTEX
  5
1E3
100
AcDbEntity
  8
LAYER_1
 62
     7
100
AcDbVertex
100
AcDb2dVertex
 10
90.001569
 20
154.815012
 30
0.0
  0
VERTEX
  5
1E4
100
AcDbEntity
  8
LAYER_1
 62
     7
100
AcDbVertex
100
AcDb2dVertex
 10
92.205741
 20
154.815012
 30
0.0
  0
SEQEND
  5
1E5
100
AcDbEntity
  8
LAYER_1
 62
     7
  0
SPLINE
  5
1E0
100
AcDbEntity
  8
LAYER_1
 62
     7
100
AcDbSpline
210
0.0
220
0.0
230
1.0
 70
     8
 71
     3
 72
    17
 73
    13
 74
     0
 42
0.00000001
 43
0.00000001
 40
0.0
 40
0.0
 40
0.0
 40
0.0
 40
1.0
 40
1.0
 40
1.0
 40
2.0
 40
2.0
 40
2.0
 40
3.0
 40
3.0
 40
3.0
 40
4.0
 40
4.0
 40
4.0
 40
4.0
 10
77.673295084635413
 20
132.64444444444445
 30
0.0
 10
77.74822591145832
 20
132.7116238064236
 30
0.0
 10
77.79128960503472
 20
132.80705295138887
 30
0.0
 10
77.792323133680554
 20
132.90764973958332
 30
0.0
 10
77.79128960503472
 20
133.10160861545137
 30
0.0
 10
77.634537760416663
 20
133.25870496961804
 30
0.0
 10
77.440751139322913
 20
133.26042751736111
 30
0.0
 10
77.246620008680551
 20
133.25904947916666
 30
0.0
 10
77.089523654513883
 20
133.10195312499999
 30
0.0
 10
77.088145616319437
 20
132.90764973958332
 30
0.0
 10
77.178407118055546
 20
132.67476128472222
 30
0.0
 10
77.439028591579856
 20
132.55728352864583
 30
0.0
 10
77.673295084635413
 20
132.64444444444445
 30
0.0
  0
LINE
  5
1DF
100
AcDbEntity
  8
LAYER_1
 62
     7
100
AcDbLine
 10
88.537748
 20
169.993414
 30
0.0
 11
88.537748
 21
159.587675
 31
0.0
  0
POLYLINE
  5
1DA
100
AcDbEntity
  8
LAYER_1
 62
     7
100
AcDb2dPolyline
 66
     1
 10
0.0
 20
0.0
 30
0.0
  0
VERTEX
  5
1DB
100
AcDbEntity
  8
LAYER_1
 62
     7
100
AcDbVertex
100
AcDb2dVertex
 10
39.520585
 20
133.105398
 30
0.0
  0
VERTEX
  5
1DC
100
AcDbEntity
  8
LAYER_1
 62
     7
100
AcDbVertex
100
AcDb2dVertex
 10
41.391444
 20
133.607004
 30
0.0
  0
VERTEX
  5
1DD
100
AcDbEntity
  8
LAYER_1
 62
     7
100
AcDbVertex
100
AcDb2dVertex
 10
39.520585
 20
134.109299
 30
0.0
  0
SEQEND
  5
1DE
100
AcDbEntity
  8
LAYER_1
 62
     7
  0
POLYLINE
  5
1D5
100
AcDbEntity
  8
LAYER_1
 62
     7
100
AcDb2dPolyline
 66
     1
 10
0.0
 20
0.0
 30
0.0
  0
VERTEX
  5
1D6
100
AcDbEntity
  8
LAYER_1
 62
     7
100
AcDbVertex
100
AcDb2dVertex
 10
65.228749
 20
133.068191
 30
0.0
  0
VERTEX
  5
1D7
100
AcDbEntity
  8
LAYER_1
 62
     7
100
AcDbVertex
100
AcDb2dVertex
 10
67.100986
 20
133.569453
 30
0.0
  0
VERTEX
  5
1D8
100
AcDbEntity
  8
LAYER_1
 62
     7
100
AcDbVertex
100
AcDb2dVertex
 10
65.228749
 20
134.070714
 30
0.0
  0
SEQEND
  5
1D9
100
AcDbEntity
  8
LAYER_1
 62
     7
  0
POLYLINE
  5
1D0
100
AcDbEntity
  8
LAYER_1
 62
     7
100
AcDb2dPolyline
 66
     1
 10
0.0
 20
0.0
 30
0.0
  0
VERTEX
  5
1D1
100
AcDbEntity
  8
LAYER_1
 62
     7
100
AcDbVertex
100
AcDb2dVertex
 10
142.018894
 20
71.732745
 30
0.0
  0
VERTEX
  5
1D2
100
AcDbEntity
  8
LAYER_1
 62
     7
100
AcDbVertex
100
AcDb2dVertex
 10
143.890959
 20
72.235384
 30
0.0
  0
VERTEX
  5
1D3
100
AcDbEntity
  8
LAYER_1
 62
     7
100
AcDbVertex
100
AcDb2dVertex
 10
142.018894
 20
72.736646
 30
0.0
  0
SEQEND
  5
1D4
100
AcDbEntity
  8
LAYER_1
 62
     7
  0
POLYLINE
  5
1CB
100
AcDbEntity
  8
LAYER_1
 62
     7
100
AcDb2dPolyline
 66
     1
 10
0.0
 20
0.0
 30
0.0
  0
VERTEX
  5
1CC
100
AcDbEntity
  8
LAYER_1
 62
     7
100
AcDbVertex
100
AcDb2dVertex
 10
140.546115
 20
106.879264
 30
0.0
  0
VERTEX
  5
1CD
100
AcDbEntity
  8
LAYER_1
 62
     7
100
AcDbVertex
100
AcDb2dVertex
 10
142.41818
 20
107.380526
 30
0.0
  0
VERTEX
  5
1CE
100
AcDbEntity
  8
LAYER_1
 62
     7
100
AcDbVertex
100
AcDb2dVertex
 10
140.546115
 20
107.881787
 30
0.0
  0
SEQEND
  5
1CF
100
AcDbEntity
  8
LAYER_1
 62
     7
  0
POLYLINE
  5
1C6
100
AcDbEntity
  8
LAYER_1
 62
     7
100
AcDb2dPolyline
 66
     1
 10
0.0
 20
0.0
 30
0.0
  0
VERTEX
  5
1C7
100
AcDbEntity
  8
LAYER_1
 62
     7
100
AcDbVertex
100
AcDb2dVertex
 10
147.626131
 20
107.881787
 30
0.0
  0
VERTEX
  5
1C8
100
AcDbEntity
  8
LAYER_1
 62
     7
100
AcDbVertex
100
AcDb2dVertex
 10
145.754066
 20
107.380526
 30
0.0
  0
VERTEX
  5
1C9
100
AcDbEntity
  8
LAYER_1
 62
     7
100
AcDbVertex
100
AcDb2dVertex
 10
147.626131
 20
106.879264
 30
0.0
  0
SEQEND
  5
1CA
100
AcDbEntity
  8
LAYER_1
 62
     7
  0
POLYLINE
  5
1C1
100
AcDbEntity
  8
LAYER_1
 62
     7
100
AcDb2dPolyline
 66
     1
 10
0.0
 20
0.0
 30
0.0
  0
VERTEX
  5
1C2
100
AcDbEntity
  8
LAYER_1
 62
     7
100
AcDbVertex
100
AcDb2dVertex
 10
67.143705
 20
82.513482
 30
0.0
  0
VERTEX
  5
1C3
100
AcDbEntity
  8
LAYER_1
 62
     7
100
AcDbVertex
100
AcDb2dVertex
 10
69.015942
 20
83.014743
 30
0.0
  0
VERTEX
  5
1C4
100
AcDbEntity
  8
LAYER_1
 62
     7
100
AcDbVertex
100
AcDb2dVertex
 10
67.143705
 20
83.516005
 30
0.0
  0
SEQEND
  5
1C5
100
AcDbEntity
  8
LAYER_1
 62
     7
  0
POLYLINE
  5
1BC
100
AcDbEntity
  8
LAYER_1
 62
     7
100
AcDb2dPolyline
 66
     1
 10
0.0
 20
0.0
 30
0.0
  0
VERTEX
  5
1BD
100
AcDbEntity
  8
LAYER_1
 62
     7
100
AcDbVertex
100
AcDb2dVertex
 10
70.781382
 20
72.79349
 30
0.0
  0
VERTEX
  5
1BE
100
AcDbEntity
  8
LAYER_1
 62
     7
100
AcDbVertex
100
AcDb2dVertex
 10
68.909317
 20
72.292228
 30
0.0
  0
VERTEX
  5
1BF
100
AcDbEntity
  8
LAYER_1
 62
     7
100
AcDbVertex
100
AcDb2dVertex
 10
70.781382
 20
71.790967
 30
0.0
  0
SEQEND
  5
1C0
100
AcDbEntity
  8
LAYER_1
 62
     7
  0
POLYLINE
  5
1B7
100
AcDbEntity
  8
LAYER_1
 62
     7
100
AcDb2dPolyline
 66
     1
 10
0.0
 20
0.0
 30
0.0
  0
VERTEX
  5
1B8
100
AcDbEntity
  8
LAYER_1
 62
     7
100
AcDbVertex
100
AcDb2dVertex
 10
79.123508
 20
83.516005
 30
0.0
  0
VERTEX
  5
1B9
100
AcDbEntity
  8
LAYER_1
 62
     7
100
AcDbVertex
100
AcDb2dVertex
 10
77.251443
 20
83.014743
 30
0.0
  0
VERTEX
  5
1BA
100
AcDbEntity
  8
LAYER_1
 62
     7
100
AcDbVertex
100
AcDb2dVertex
 10
79.123508
 20
82.513482
 30
0.0
  0
SEQEND
  5
1BB
100
AcDbEntity
  8
LAYER_1
 62
     7
  0
POLYLINE
  5
1B2
100
AcDbEntity
  8
LAYER_1
 62
     7
100
AcDb2dPolyline
 66
     1
 10
0.0
 20
0.0
 30
0.0
  0
VERTEX
  5
1B3
100
AcDbEntity
  8
LAYER_1
 62
     7
100
AcDbVertex
100
AcDb2dVertex
 10
89.039182
 20
168.121349
 30
0.0
  0
VERTEX
  5
1B4
100
AcDbEntity
  8
LAYER_1
 62
     7
100
AcDbVertex
100
AcDb2dVertex
 10
88.537748
 20
169.993414
 30
0.0
  0
VERTEX
  5
1B5
100
AcDbEntity
  8
LAYER_1
 62
     7
100
AcDbVertex
100
AcDb2dVertex
 10
88.036487
 20
168.121349
 30
0.0
  0
SEQEND
  5
1B6
100
AcDbEntity
  8
LAYER_1
 62
     7
  0
POLYLINE
  5
1AD
100
AcDbEntity
  8
LAYER_1
 62
     7
100
AcDb2dPolyline
 66
     1
 10
0.0
 20
0.0
 30
0.0
  0
VERTEX
  5
1AE
100
AcDbEntity
  8
LAYER_1
 62
     7
100
AcDbVertex
100
AcDb2dVertex
 10
88.019778
 20
173.60973
 30
0.0
  0
VERTEX
  5
1AF
100
AcDbEntity
  8
LAYER_1
 62
     7
100
AcDbVertex
100
AcDb2dVertex
 10
88.521039
 20
171.737665
 30
0.0
  0
VERTEX
  5
1B0
100
AcDbEntity
  8
LAYER_1
 62
     7
100
AcDbVertex
100
AcDb2dVertex
 10
89.022301
 20
173.60973
 30
0.0
  0
SEQEND
  5
1B1
100
AcDbEntity
  8
LAYER_1
 62
     7
  0
POLYLINE
  5
1A8
100
AcDbEntity
  8
LAYER_1
 62
     7
100
AcDb2dPolyline
 66
     1
 10
0.0
 20
0.0
 30
0.0
  0
VERTEX
  5
1A9
100
AcDbEntity
  8
LAYER_1
 62
     7
100
AcDbVertex
100
AcDb2dVertex
 10
90.332471
 20
106.677726
 30
0.0
  0
VERTEX
  5
1AA
100
AcDbEntity
  8
LAYER_1
 62
     7
100
AcDbVertex
100
AcDb2dVertex
 10
89.831209
 20
104.805661
 30
0.0
  0
VERTEX
  5
1AB
100
AcDbEntity
  8
LAYER_1
 62
     7
100
AcDbVertex
100
AcDb2dVertex
 10
89.329776
 20
106.677726
 30
0.0
  0
SEQEND
  5
1AC
100
AcDbEntity
  8
LAYER_1
 62
     7
  0
POLYLINE
  5
1A3
100
AcDbEntity
  8
LAYER_1
 62
     7
100
AcDb2dPolyline
 66
     1
 10
0.0
 20
0.0
 30
0.0
  0
VERTEX
  5
1A4
100
AcDbEntity
  8
LAYER_1
 62
     7
100
AcDbVertex
100
AcDb2dVertex
 10
90.378979
 20
97.675003
 30
0.0
  0
VERTEX
  5
1A5
100
AcDbEntity
  8
LAYER_1
 62
     7
100
AcDbVertex
100
AcDb2dVertex
 10
89.877718
 20
99.547068
 30
0.0
  0
VERTEX
  5
1A6
100
AcDbEntity
  8
LAYER_1
 62
     7
100
AcDbVertex
100
AcDb2dVertex
 10
89.375079
 20
97.675003
 30
0.0
  0
SEQEND
  5
1A7
100
AcDbEntity
  8
LAYER_1
 62
     7
  0
POLYLINE
  5
19E
100
AcDbEntity
  8
LAYER_1
 62
     7
100
AcDb2dPolyline
 66
     1
 10
0.0
 20
0.0
 30
0.0
  0
VERTEX
  5
19F
100
AcDbEntity
  8
LAYER_1
 62
     7
100
AcDbVertex
100
AcDb2dVertex
 10
162.663628
 20
169.83959
 30
0.0
  0
VERTEX
  5
1A0
100
AcDbEntity
  8
LAYER_1
 62
     7
100
AcDbVertex
100
AcDb2dVertex
 10
162.162367
 20
171.711827
 30
0.0
  0
VERTEX
  5
1A1
100
AcDbEntity
  8
LAYER_1
 62
     7
100
AcDbVertex
100
AcDb2dVertex
 10
161.661106
 20
169.83959
 30
0.0
  0
SEQEND
  5
1A2
100
AcDbEntity
  8
LAYER_1
 62
     7
  0
POLYLINE
  5
199
100
AcDbEntity
  8
LAYER_1
 62
     7
100
AcDb2dPolyline
 66
     1
 10
0.0
 20
0.0
 30
0.0
  0
VERTEX
  5
19A
100
AcDbEntity
  8
LAYER_1
 62
     7
100
AcDbVertex
100
AcDb2dVertex
 10
120.526321
 20
102.78339
 30
0.0
  0
VERTEX
  5
19B
100
AcDbEntity
  8
LAYER_1
 62
     7
100
AcDbVertex
100
AcDb2dVertex
 10
120.023682
 20
104.654422
 30
0.0
  0
VERTEX
  5
19C
100
AcDbEntity
  8
LAYER_1
 62
     7
100
AcDbVertex
100
AcDb2dVertex
 10
119.52242
 20
102.78339
 30
0.0
  0
SEQEND
  5
19D
100
AcDbEntity
  8
LAYER_1
 62
     7
  0
POLYLINE
  5
194
100
AcDbEntity
  8
LAYER_1
 62
     7
100
AcDb2dPolyline
 66
     1
 10
0.0
 20
0.0
 30
0.0
  0
VERTEX
  5
195
100
AcDbEntity
  8
LAYER_1
 62
     7
100
AcDbVertex
100
AcDb2dVertex
 10
161.506076
 20
106.460685
 30
0.0
  0
VERTEX
  5
196
100
AcDbEntity
  8
LAYER_1
 62
     7
100
AcDbVertex
100
AcDb2dVertex
 10
162.007338
 20
104.58862
 30
0.0
  0
VERTEX
  5
197
100
AcDbEntity
  8
LAYER_1
 62
     7
100
AcDbVertex
100
AcDb2dVertex
 10
162.509977
 20
106.460685
 30
0.0
  0
SEQEND
  5
198
100
AcDbEntity
  8
LAYER_1
 62
     7
  0
POLYLINE
  5
18F
100
AcDbEntity
  8
LAYER_1
 62
     7
100
AcDb2dPolyline
 66
     1
 10
0.0
 20
0.0
 30
0.0
  0
VERTEX
  5
190
100
AcDbEntity
  8
LAYER_1
 62
     7
100
AcDbVertex
100
AcDb2dVertex
 10
119.52242
 20
95.929373
 30
0.0
  0
VERTEX
  5
191
100
AcDbEntity
  8
LAYER_1
 62
     7
100
AcDbVertex
100
AcDb2dVertex
 10
120.023682
 20
94.057308
 30
0.0
  0
VERTEX
  5
192
100
AcDbEntity
  8
LAYER_1
 62
     7
100
AcDbVertex
100
AcDb2dVertex
 10
120.526321
 20
95.929373
 30
0.0
  0
SEQEND
  5
193
100
AcDbEntity
  8
LAYER_1
 62
     7
  0
POLYLINE
  5
18A
100
AcDbEntity
  8
LAYER_1
 62
     7
100
AcDb2dPolyline
 66
     1
 10
0.0
 20
0.0
 30
0.0
  0
VERTEX
  5
18B
100
AcDbEntity
  8
LAYER_1
 62
     7
100
AcDbVertex
100
AcDb2dVertex
 10
45.896596
 20
134.109299
 30
0.0
  0
VERTEX
  5
18C
100
AcDbEntity
  8
LAYER_1
 62
     7
100
AcDbVertex
100
AcDb2dVertex
 10
44.024531
 20
133.607004
 30
0.0
  0
VERTEX
  5
18D
100
AcDbEntity
  8
LAYER_1
 62
     7
100
AcDbVertex
100
AcDb2dVertex
 10
45.896596
 20
133.105398
 30
0.0
  0
SEQEND
  5
18E
100
AcDbEntity
  8
LAYER_1
 62
     7
  0
LINE
  5
189
100
AcDbEntity
  8
LAYER_1
 62
     7
100
AcDbLine
 10
77.251443
 20
83.014743
 30
0.0
 11
82.365171
 21
83.014743
 31
0.0
  0
LINE
  5
188
100
AcDbEntity
  8
LAYER_1
 62
     7
100
AcDbLine
 10
174.255686
 20
126.999655
 30
0.0
 11
176.535994
 21
126.999655
 31
0.0
  0
LINE
  5
187
100
AcDbEntity
  8
LAYER_1
 62
     7
100
AcDbLine
 10
174.255686
 20
121.831668
 30
0.0
 11
176.535994
 21
121.831668
 31
0.0
  0
LINE
  5
186
100
AcDbEntity
  8
LAYER_1
 62
     7
100
AcDbLine
 10
174.255686
 20
116.663336
 30
0.0
 11
176.535994
 21
116.663336
 31
0.0
  0
POLYLINE
  5
181
100
AcDbEntity
  8
LAYER_1
 62
     7
100
AcDb2dPolyline
 66
     1
 10
0.0
 20
0.0
 30
0.0
  0
VERTEX
  5
182
100
AcDbEntity
  8
LAYER_1
 62
     7
100
AcDbVertex
100
AcDb2dVertex
 10
174.114781
 20
90.981182
 30
0.0
  0
VERTEX
  5
183
100
AcDbEntity
  8
LAYER_1
 62
     7
100
AcDbVertex
100
AcDb2dVertex
 10
174.114781
 20
132.318538
 30
0.0
  0
VERTEX
  5
184
100
AcDbEntity
  8
LAYER_1
 62
     7
100
AcDbVertex
100
AcDb2dVertex
 10
176.394057
 20
132.318538
 30
0.0
  0
SEQEND
  5
185
100
AcDbEntity
  8
LAYER_1
 62
     7
  0
LINE
  5
180
100
AcDbEntity
  8
LAYER_1
 62
     7
100
AcDbLine
 10
174.07723
 20
90.041705
 30
0.0
 11
174.07723
 21
90.981182
 31
0.0
  0
SPLINE
  5
17F
100
AcDbEntity
  8
LAYER_1
 62
     7
100
AcDbSpline
210
0.0
220
0.0
230
1.0
 70
     8
 71
     3
 72
    17
 73
    13
 74
     0
 42
0.00000001
 43
0.00000001
 40
0.0
 40
0.0
 40
0.0
 40
0.0
 40
1.0
 40
1.0
 40
1.0
 40
2.0
 40
2.0
 40
2.0
 40
3.0
 40
3.0
 40
3.0
 40
4.0
 40
4.0
 40
4.0
 40
4.0
 10
174.17954915364581
 20
98.986206054687486
 30
0.0
 10
174.00143771701389
 20
98.987584092881931
 30
0.0
 10
173.85777723524305
 20
99.13158908420138
 30
0.0
 10
173.8563991970486
 20
99.30935601128472
 30
0.0
 10
173.94390462239582
 20
99.523640950520829
 30
0.0
 10
174.18747287326389
 20
99.62768283420138
 30
0.0
 10
174.40279134114581
 20
99.543277994791652
 30
0.0
 10
174.46583658854166
 20
99.481610785590263
 30
0.0
 10
174.50166558159719
 20
99.39755045572916
 30
0.0
 10
174.50235460069442
 20
99.30935601128472
 30
0.0
 10
174.50097656249997
 20
99.13158908420138
 30
0.0
 10
174.35731608072916
 20
98.987584092881931
 30
0.0
 10
174.17954915364581
 20
98.986206054687486
 30
0.0
  0
SPLINE
  5
17E
100
AcDbEntity
  8
LAYER_1
 62
     7
100
AcDbSpline
210
0.0
220
0.0
230
1.0
 70
     8
 71
     3
 72
    17
 73
    13
 74
     0
 42
0.00000001
 43
0.00000001
 40
0.0
 40
0.0
 40
0.0
 40
0.0
 40
1.0
 40
1.0
 40
1.0
 40
2.0
 40
2.0
 40
2.0
 40
3.0
 40
3.0
 40
3.0
 40
4.0
 40
4.0
 40
4.0
 40
4.0
 10
174.14199761284721
 20
94.142746310763883
 30
0.0
 10
173.96388617621525
 20
94.143779839409717
 30
0.0
 10
173.82022569444442
 20
94.287784830729152
 30
0.0
 10
173.81884765624997
 20
94.465551757812491
 30
0.0
 10
173.90635308159722
 20
94.679492187499989
 30
0.0
 10
174.14923231336803
 20
94.78353407118054
 30
0.0
 10
174.36420627170136
 20
94.699473741319437
 30
0.0
 10
174.42759602864581
 20
94.63815104166666
 30
0.0
 10
174.46376953124999
 20
94.554090711805543
 30
0.0
 10
174.46514756944444
 20
94.465551757812491
 30
0.0
 10
174.46342502170137
 20
94.287784830729152
 30
0.0
 10
174.31976453993053
 20
94.143779839409717
 30
0.0
 10
174.14199761284721
 20
94.142746310763883
 30
0.0
  0
SPLINE
  5
17D
100
AcDbEntity
  8
LAYER_1
 62
     7
100
AcDbSpline
210
0.0
220
0.0
230
1.0
 70
     8
 71
     3
 72
    20
 73
    16
 74
     0
 42
0.00000001
 43
0.00000001
 40
0.0
 40
0.0
 40
0.0
 40
0.0
 40
1.0
 40
1.0
 40
1.0
 40
2.0
 40
2.0
 40
2.0
 40
3.0
 40
3.0
 40
3.0
 40
4.0
 40
4.0
 40
4.0
 40
5.0
 40
5.0
 40
5.0
 40
5.0
 10
174.09273274739581
 20
91.978537326388874
 30
0.0
 10
174.00729437934027
 20
91.978537326388874
 30
0.0
 10
173.92495659722221
 20
92.012643771701377
 30
0.0
 10
173.86432291666665
 20
92.073277452256931
 30
0.0
 10
173.8036892361111
 20
92.133566623263874
 30
0.0
 10
173.76992730034721
 20
92.215904405381934
 30
0.0
 10
173.76992730034721
 20
92.301342773437497
 30
0.0
 10
173.85708821614583
 20
92.515283203124994
 30
0.0
 10
174.09996744791664
 20
92.619669596354157
 30
0.0
 10
174.31494140624997
 20
92.535264756944443
 30
0.0
 10
174.37833116319442
 20
92.473942057291652
 30
0.0
 10
174.4148491753472
 20
92.389881727430549
 30
0.0
 10
174.41588270399305
 20
92.301342773437497
 30
0.0
 10
174.4145046657986
 20
92.123575846354157
 30
0.0
 10
174.27084418402777
 20
91.97991536458332
 30
0.0
 10
174.09273274739581
 20
91.978537326388874
 30
0.0
  0
SPLINE
  5
17C
100
AcDbEntity
  8
LAYER_1
 62
     7
100
AcDbSpline
210
0.0
220
0.0
230
1.0
 70
     8
 71
     3
 72
    17
 73
    13
 74
     0
 42
0.00000001
 43
0.00000001
 40
0.0
 40
0.0
 40
0.0
 40
0.0
 40
1.0
 40
1.0
 40
1.0
 40
2.0
 40
2.0
 40
2.0
 40
3.0
 40
3.0
 40
3.0
 40
4.0
 40
4.0
 40
4.0
 40
4.0
 10
174.07722981770831
 20
89.39574924045138
 30
0.0
 10
173.89946289062499
 20
89.397127278645826
 30
0.0
 10
173.75580240885415
 20
89.541132269965274
 30
0.0
 10
173.75442437065971
 20
89.7188991970486
 30
0.0
 10
173.84158528645833
 20
89.932839626736097
 30
0.0
 10
174.08446451822914
 20
90.036881510416663
 30
0.0
 10
174.29943847656247
 20
89.952476671006934
 30
0.0
 10
174.36282823350692
 20
89.891153971354157
 30
0.0
 10
174.3993462456597
 20
89.807093641493054
 30
0.0
 10
174.40037977430555
 20
89.7188991970486
 30
0.0
 10
174.3990017361111
 20
89.541132269965274
 30
0.0
 10
174.25534125434027
 20
89.397127278645826
 30
0.0
 10
174.07722981770831
 20
89.39574924045138
 30
0.0
  0
MTEXT
  5
17B
100
AcDbEntity
  8
LAYER_1
 62
     7
100
AcDbMText
 10
176.408181
 20
128.314094
 30
0.0
 40
2.557429
 41
0.0
 71
     1
 72
     2
  1
\W0.50;\fMS Gothic|b0|i0|c128;フラットヤーンクロス(70g/㎡程度)
  7
KANJISTD
210
0.0
220
0.0
230
1.0
 11
1.000001
 21
0.0
 31
0.0
 73
     1
 44
1.0
  0
MTEXT
  5
17A
100
AcDbEntity
  8
LAYER_1
 62
     7
100
AcDbMText
 10
176.940449
 20
117.754532
 30
0.0
 40
2.557429
 41
0.0
 71
     1
 72
     2
  1
\W0.50;\fMS Gothic|b0|i0|c128;防水層
  7
KANJISTD
210
0.0
220
0.0
230
1.0
 11
1.000001
 21
0.0
 31
0.0
 73
     1
 44
1.0
  0
MTEXT
  5
179
100
AcDbEntity
  8
LAYER_1
 62
     7
100
AcDbMText
 10
177.093066
 20
122.996245
 30
0.0
 40
2.557429
 41
0.0
 71
     1
 72
     2
  1
\W0.50;\fMS Gothic|b0|i0|c128;断熱材
  7
KANJISTD
210
0.0
220
0.0
230
1.0
 11
1.000001
 21
0.0
 31
0.0
 73
     1
 44
1.0
  0
MTEXT
  5
178
100
AcDbEntity
  8
LAYER_1
 62
     7
100
AcDbMText
 10
176.408181
 20
133.783183
 30
0.0
 40
2.557429
 41
0.0
 71
     1
 72
     2
  1
\W0.50;\fMS Gothic|b0|i0|c128;押さえコンクリート
  7
KANJISTD
210
0.0
220
0.0
230
1.0
 11
1.000001
 21
0.0
 31
0.0
 73
     1
 44
1.0
  0
MTEXT
  5
177
100
AcDbEntity
  8
LAYER_1
 62
     7
100
AcDbMText
 10
79.745692
 20
195.058857
 30
0.0
 40
2.557429
 41
0.0
 71
     1
 72
     2
  1
\W0.50;\fMS Gothic|b0|i0|c128;金属笠木
  7
KANJISTD
210
0.0
220
0.0
230
1.0
 11
1.000001
 21
0.0
 31
0.0
 73
     1
 44
1.0
  0
MTEXT
  5
176
100
AcDbEntity
  8
LAYER_1
 62
     7
100
AcDbMText
 10
83.886697
 20
190.424343
 30
0.0
 40
2.557429
 41
0.0
 71
     1
 72
     2
  1
\W0.50;\fMS Gothic|b0|i0|c128;金属笠木取付金具
  7
KANJISTD
210
0.0
220
0.0
230
1.0
 11
1.000001
 21
0.0
 31
0.0
 73
     1
 44
1.0
  0
MTEXT
  5
175
100
AcDbEntity
  8
LAYER_1
 62
     7
100
AcDbMText
 10
86.924065
 20
184.07417
 30
0.0
 40
2.557429
 41
0.0
 71
     1
 72
     2
  1
\W0.50;\fMS Gothic|b0|i0|c128;上部ホルダー
  7
KANJISTD
210
0.0
220
0.0
230
1.0
 11
1.000001
 21
0.0
 31
0.0
 73
     1
 44
1.0
  0
MTEXT
  5
174
100
AcDbEntity
  8
LAYER_1
 62
     7
100
AcDbMText
 10
85.431343
 20
160.690967
 30
0.0
 40
2.557429
 41
0.0
 71
     1
 72
     2
  1
\W0.50;\fMS Gothic|b0|i0|c128;10程度
  7
KANJISTD
210
0.0
220
0.0
230
1.0
 11
0.0
 21
1.0
 31
0.0
 73
     1
 44
1.0
  0
LINE
  5
173
100
AcDbEntity
  8
LAYER_1
 62
     7
100
AcDbLine
 10
51.264916
 20
169.408092
 30
0.0
 11
51.264916
 21
175.749307
 31
0.0
  0
LINE
  5
172
100
AcDbEntity
  8
LAYER_1
 62
     7
100
AcDbLine
 10
47.161462
 20
175.633035
 30
0.0
 11
55.506517
 21
175.633035
 31
0.0
  0
SPLINE
  5
171
100
AcDbEntity
  8
LAYER_1
 62
     7
100
AcDbSpline
210
0.0
220
0.0
230
1.0
 70
     8
 71
     3
 72
    23
 73
    19
 74
     0
 42
0.00000001
 43
0.00000001
 40
0.0
 40
0.0
 40
0.0
 40
0.0
 40
1.0
 40
1.0
 40
1.0
 40
2.0
 40
2.0
 40
2.0
 40
3.0
 40
3.0
 40
3.0
 40
4.0
 40
4.0
 40
4.0
 40
5.0
 40
5.0
 40
5.0
 40
6.0
 40
6.0
 40
6.0
 40
6.0
 10
195.84127604166665
 20
88.797680664062497
 30
0.0
 10
195.84127604166665
 20
88.797680664062497
 30
0.0
 10
67.22363145616319
 20
88.797680664062497
 30
0.0
 10
67.22363145616319
 20
88.797680664062497
 30
0.0
 10
67.22363145616319
 20
88.797680664062497
 30
0.0
 10
67.226215277777769
 20
171.40176866319442
 30
0.0
 10
67.226215277777769
 20
171.40176866319442
 30
0.0
 10
67.185046386718739
 20
172.51281195746526
 30
0.0
 10
66.339619954427079
 20
173.42782931857639
 30
0.0
 10
65.235294596354166
 20
173.55667588975692
 30
0.0
 10
65.235294596354166
 20
173.55667588975692
 30
0.0
 10
43.93409695095486
 20
173.56701117621526
 30
0.0
 10
43.93409695095486
 20
173.56701117621526
 30
0.0
 10
43.93409695095486
 20
173.56701117621526
 30
0.0
 10
41.364227973090273
 20
171.03210991753471
 30
0.0
 10
41.364227973090273
 20
171.03210991753471
 30
0.0
 10
41.364227973090273
 20
171.03210991753471
 30
0.0
 10
41.370773654513883
 20
65.00137261284722
 30
0.0
 10
41.370773654513883
 20
65.00137261284722
 30
0.0
  0
LINE
  5
170
100
AcDbEntity
  8
LAYER_1
 62
     7
100
AcDbLine
 10
46.043873
 20
173.396479
 30
0.0
 11
46.543929
 21
173.895329
 31
0.0
  0
LINE
  5
16F
100
AcDbEntity
  8
LAYER_1
 62
     7
100
AcDbLine
 10
45.440637
 20
173.573557
 30
0.0
 11
47.282902
 21
175.415994
 31
0.0
  0
LINE
  5
16E
100
AcDbEntity
  8
LAYER_1
 62
     7
100
AcDbLine
 10
44.688573
 20
173.603357
 30
0.0
 11
46.492253
 21
175.408242
 31
0.0
  0
LINE
  5
16D
100
AcDbEntity
  8
LAYER_1
 62
     7
100
AcDbLine
 10
44.01299
 20
173.709294
 30
0.0
 11
45.722102
 21
175.418578
 31
0.0
  0
SPLINE
  5
16C
100
AcDbEntity
  8
LAYER_1
 62
     7
100
AcDbSpline
210
0.0
220
0.0
230
1.0
 70
     8
 71
     3
 72
    14
 73
    10
 74
     0
 42
0.00000001
 43
0.00000001
 40
0.0
 40
0.0
 40
0.0
 40
0.0
 40
1.0
 40
1.0
 40
1.0
 40
2.0
 40
2.0
 40
2.0
 40
3.0
 40
3.0
 40
3.0
 40
3.0
 10
43.591654459635414
 20
173.35014241536456
 30
0.0
 10
43.702069769965277
 20
174.17627631293402
 30
0.0
 10
44.263448079427079
 20
174.87235785590275
 30
0.0
 10
45.04789632161458
 20
175.15502794053819
 30
0.0
 10
45.598078070746524
 20
175.32556016710069
 30
0.0
 10
46.16944715711805
 20
175.41806098090277
 30
0.0
 10
46.74546712239583
 20
175.43011881510415
 30
0.0
 10
47.199358452690966
 20
175.42529568142359
 30
0.0
 10
47.651699490017357
 20
175.37516954210068
 30
0.0
 10
48.095600043402776
 20
175.28025716145831
 30
0.0
  0
POLYLINE
  5
160
100
AcDbEntity
  8
LAYER_1
  6
AI9-LType1
 62
     7
100
AcDb2dPolyline
 66
     1
 10
0.0
 20
0.0
 30
0.0
  0
VERTEX
  5
161
100
AcDbEntity
  8
LAYER_1
  6
AI9-LType1
 62
     7
100
AcDbVertex
100
AcDb2dVertex
 10
82.283177
 20
167.966319
 30
0.0
  0
VERTEX
  5
162
100
AcDbEntity
  8
LAYER_1
  6
AI9-LType1
 62
     7
100
AcDbVertex
100
AcDb2dVertex
 10
81.068781
 20
176.100707
 30
0.0
  0
VERTEX
  5
163
100
AcDbEntity
  8
LAYER_1
  6
AI9-LType1
 62
     7
100
AcDbVertex
100
AcDb2dVertex
 10
57.830923
 20
176.100707
 30
0.0
  0
VERTEX
  5
164
100
AcDbEntity
  8
LAYER_1
  6
AI9-LType1
 62
     7
100
AcDbVertex
100
AcDb2dVertex
 10
57.053021
 20
177.65634
 30
0.0
  0
VERTEX
  5
165
100
AcDbEntity
  8
LAYER_1
  6
AI9-LType1
 62
     7
100
AcDbVertex
100
AcDb2dVertex
 10
53.733843
 20
177.864251
 30
0.0
  0
VERTEX
  5
166
100
AcDbEntity
  8
LAYER_1
  6
AI9-LType1
 62
     7
100
AcDbVertex
100
AcDb2dVertex
 10
53.059466
 20
176.100707
 30
0.0
  0
VERTEX
  5
167
100
AcDbEntity
  8
LAYER_1
  6
AI9-LType1
 62
     7
100
AcDbVertex
100
AcDb2dVertex
 10
45.590327
 20
176.100707
 30
0.0
  0
VERTEX
  5
168
100
AcDbEntity
  8
LAYER_1
  6
AI9-LType1
 62
     7
100
AcDbVertex
100
AcDb2dVertex
 10
44.449655
 20
178.330717
 30
0.0
  0
VERTEX
  5
169
100
AcDbEntity
  8
LAYER_1
  6
AI9-LType1
 62
     7
100
AcDbVertex
100
AcDb2dVertex
 10
40.927562
 20
178.562055
 30
0.0
  0
VERTEX
  5
16A
100
AcDbEntity
  8
LAYER_1
  6
AI9-LType1
 62
     7
100
AcDbVertex
100
AcDb2dVertex
 10
39.68216
 20
168.042456
 30
0.0
  0
SEQEND
  5
16B
100
AcDbEntity
  8
LAYER_1
  6
AI9-LType1
 62
     7
  0
POLYLINE
  5
155
100
AcDbEntity
  8
LAYER_1
 62
     7
100
AcDb2dPolyline
 66
     1
 10
0.0
 20
0.0
 30
0.0
 70
     1
  0
VERTEX
  5
156
100
AcDbEntity
  8
LAYER_1
 62
     7
100
AcDbVertex
100
AcDb2dVertex
 10
79.42926
 20
170.05422
 30
0.0
  0
VERTEX
  5
157
100
AcDbEntity
  8
LAYER_1
 62
     7
100
AcDbVertex
100
AcDb2dVertex
 10
79.427882
 20
175.475422
 30
0.0
  0
VERTEX
  5
158
100
AcDbEntity
  8
LAYER_1
 62
     7
100
AcDbVertex
100
AcDb2dVertex
 10
75.311682
 20
175.475422
 30
0.0
  0
VERTEX
  5
159
100
AcDbEntity
  8
LAYER_1
 62
     7
100
AcDbVertex
100
AcDb2dVertex
 10
75.311682
 20
170.05422
 30
0.0
  0
VERTEX
  5
15A
100
AcDbEntity
  8
LAYER_1
 62
     7
100
AcDbVertex
100
AcDb2dVertex
 10
75.683752
 20
170.05422
 30
0.0
  0
VERTEX
  5
15B
100
AcDbEntity
  8
LAYER_1
 62
     7
100
AcDbVertex
100
AcDb2dVertex
 10
75.683752
 20
175.103352
 30
0.0
  0
VERTEX
  5
15C
100
AcDbEntity
  8
LAYER_1
 62
     7
100
AcDbVertex
100
AcDb2dVertex
 10
79.05719
 20
175.103352
 30
0.0
  0
VERTEX
  5
15D
100
AcDbEntity
  8
LAYER_1
 62
     7
100
AcDbVertex
100
AcDb2dVertex
 10
79.05719
 20
170.05422
 30
0.0
  0
SEQEND
  5
15E
100
AcDbEntity
  8
LAYER_1
 62
     7
  0
POLYLINE
  5
142
100
AcDbEntity
  8
LAYER_1
 62
     7
100
AcDb2dPolyline
 66
     1
 10
0.0
 20
0.0
 30
0.0
  0
VERTEX
  5
143
100
AcDbEntity
  8
LAYER_1
 62
     7
100
AcDbVertex
100
AcDb2dVertex
 10
82.717432
 20
167.762198
 30
0.0
  0
VERTEX
  5
144
100
AcDbEntity
  8
LAYER_1
 62
     7
100
AcDbVertex
100
AcDb2dVertex
 10
82.717432
 20
176.78163
 30
0.0
  0
VERTEX
  5
145
100
AcDbEntity
  8
LAYER_1
 62
     7
100
AcDbVertex
100
AcDb2dVertex
 10
43.365656
 20
178.856611
 30
0.0
  0
VERTEX
  5
146
100
AcDbEntity
  8
LAYER_1
 62
     7
100
AcDbVertex
100
AcDb2dVertex
 10
43.032171
 20
180.710589
 30
0.0
  0
VERTEX
  5
147
100
AcDbEntity
  8
LAYER_1
 62
     7
100
AcDbVertex
100
AcDb2dVertex
 10
39.245322
 20
181.129168
 30
0.0
  0
VERTEX
  5
148
100
AcDbEntity
  8
LAYER_1
 62
     7
100
AcDbVertex
100
AcDb2dVertex
 10
39.244116
 20
167.75703
 30
0.0
  0
VERTEX
  5
149
100
AcDbEntity
  8
LAYER_1
 62
     7
100
AcDbVertex
100
AcDb2dVertex
 10
39.950878
 20
167.75703
 30
0.0
  0
VERTEX
  5
14A
100
AcDbEntity
  8
LAYER_1
 62
     7
100
AcDbVertex
100
AcDb2dVertex
 10
39.950878
 20
167.404252
 30
0.0
  0
VERTEX
  5
14B
100
AcDbEntity
  8
LAYER_1
 62
     7
100
AcDbVertex
100
AcDb2dVertex
 10
38.892716
 20
167.404252
 30
0.0
  0
VERTEX
  5
14C
100
AcDbEntity
  8
LAYER_1
 62
     7
100
AcDbVertex
100
AcDb2dVertex
 10
38.892716
 20
181.518119
 30
0.0
  0
VERTEX
  5
14D
100
AcDbEntity
  8
LAYER_1
 62
     7
100
AcDbVertex
100
AcDb2dVertex
 10
43.311224
 20
181.029777
 30
0.0
  0
VERTEX
  5
14E
100
AcDbEntity
  8
LAYER_1
 62
     7
100
AcDbVertex
100
AcDb2dVertex
 10
43.653666
 20
179.193713
 30
0.0
  0
VERTEX
  5
14F
100
AcDbEntity
  8
LAYER_1
 62
     7
100
AcDbVertex
100
AcDb2dVertex
 10
83.070037
 20
177.107191
 30
0.0
  0
VERTEX
  5
150
100
AcDbEntity
  8
LAYER_1
 62
     7
100
AcDbVertex
100
AcDb2dVertex
 10
83.070037
 20
167.404252
 30
0.0
  0
VERTEX
  5
151
100
AcDbEntity
  8
LAYER_1
 62
     7
100
AcDbVertex
100
AcDb2dVertex
 10
81.98087
 20
167.404252
 30
0.0
  0
VERTEX
  5
152
100
AcDbEntity
  8
LAYER_1
 62
     7
100
AcDbVertex
100
AcDb2dVertex
 10
81.98087
 20
167.75703
 30
0.0
  0
VERTEX
  5
153
100
AcDbEntity
  8
LAYER_1
 62
     7
100
AcDbVertex
100
AcDb2dVertex
 10
82.717432
 20
167.75703
 30
0.0
  0
SEQEND
  5
154
100
AcDbEntity
  8
LAYER_1
 62
     7
  0
SPLINE
  5
141
100
AcDbEntity
  8
LAYER_1
 62
     7
100
AcDbSpline
210
0.0
220
0.0
230
1.0
 70
     8
 71
     3
 72
    50
 73
    46
 74
     0
 42
0.00000001
 43
0.00000001
 40
0.0
 40
0.0
 40
0.0
 40
0.0
 40
1.0
 40
1.0
 40
1.0
 40
2.0
 40
2.0
 40
2.0
 40
3.0
 40
3.0
 40
3.0
 40
4.0
 40
4.0
 40
4.0
 40
5.0
 40
5.0
 40
5.0
 40
6.0
 40
6.0
 40
6.0
 40
7.0
 40
7.0
 40
7.0
 40
8.0
 40
8.0
 40
8.0
 40
9.0
 40
9.0
 40
9.0
 40
10.0
 40
10.0
 40
10.0
 40
11.0
 40
11.0
 40
11.0
 40
12.0
 40
12.0
 40
12.0
 40
13.0
 40
13.0
 40
13.0
 40
14.0
 40
14.0
 40
14.0
 40
15.0
 40
15.0
 40
15.0
 40
15.0
 10
195.84127604166665
 20
90.709708658854154
 30
0.0
 10
195.84127604166665
 20
90.709708658854154
 30
0.0
 10
73.624274359809021
 20
90.709708658854154
 30
0.0
 10
73.624274359809021
 20
90.709708658854154
 30
0.0
 10
73.624274359809021
 20
90.709708658854154
 30
0.0
 10
69.026105414496527
 20
95.191088867187489
 30
0.0
 10
69.026105414496527
 20
95.191088867187489
 30
0.0
 10
69.026105414496527
 20
95.191088867187489
 30
0.0
 10
69.028689236111106
 20
165.53477105034722
 30
0.0
 10
69.028689236111106
 20
165.53477105034722
 30
0.0
 10
69.028689236111106
 20
165.53477105034722
 30
0.0
 10
69.032478841145831
 20
171.42502305772567
 30
0.0
 10
69.032478841145831
 20
171.42502305772567
 30
0.0
 10
68.944628906249989
 20
173.61214192708331
 30
0.0
 10
67.155590820312497
 20
175.34554172092012
 30
0.0
 10
64.966577148437494
 20
175.36431749131944
 30
0.0
 10
64.966577148437494
 20
175.36431749131944
 30
0.0
 10
47.708026801215276
 20
175.34623074001735
 30
0.0
 10
47.708026801215276
 20
175.34623074001735
 30
0.0
 10
47.562127007378471
 20
175.33400065104166
 30
0.0
 10
47.421911621093749
 20
175.28421902126735
 30
0.0
 10
47.300988769531244
 20
175.20153672960069
 30
0.0
 10
47.024003092447913
 20
174.93988172743053
 30
0.0
 10
46.807823350694441
 20
174.62052137586804
 30
0.0
 10
46.66795247395833
 20
174.26602105034721
 30
0.0
 10
46.595260959201383
 20
174.06810031467012
 30
0.0
 10
46.538761393229166
 20
173.86449517144095
 30
0.0
 10
46.49862603081597
 20
173.65761718749999
 30
0.0
 10
46.49862603081597
 20
173.65761718749999
 30
0.0
 10
64.966577148437494
 20
173.6238552517361
 30
0.0
 10
64.966577148437494
 20
173.6238552517361
 30
0.0
 10
66.263483344184024
 20
173.61386447482639
 30
0.0
 10
67.31182590060763
 20
172.56431613498262
 30
0.0
 10
67.320610894097214
 20
171.26723768446178
 30
0.0
 10
67.320610894097214
 20
171.26723768446178
 30
0.0
 10
67.326984320746519
 20
166.07875162760416
 30
0.0
 10
67.326984320746519
 20
166.07875162760416
 30
0.0
 10
67.326984320746519
 20
166.07875162760416
 30
0.0
 10
67.336113823784714
 20
94.492078993055543
 30
0.0
 10
67.336113823784714
 20
94.492078993055543
 30
0.0
 10
67.336113823784714
 20
94.492078993055543
 30
0.0
 10
72.88030598958332
 20
89.019889322916654
 30
0.0
 10
72.88030598958332
 20
89.019889322916654
 30
0.0
 10
72.88030598958332
 20
89.019889322916654
 30
0.0
 10
195.84127604166665
 20
89.019889322916654
 30
0.0
 10
195.84127604166665
 20
89.019889322916654
 30
0.0
  0
MTEXT
  5
140
100
AcDbEntity
  8
LAYER_1
 62
     7
100
AcDbMText
 10
159.11539
 20
123.238645
 30
0.0
 40
2.557429
 41
0.0
 71
     1
 72
     2
  1
\W0.50;\fMS Gothic|b0|i0|c128;乾式保護工法  600以下
  7
KANJISTD
210
0.0
220
0.0
230
1.0
 11
0.0
 21
1.0
 31
0.0
 73
     1
 44
1.0
  0
MTEXT
  5
13F
100
AcDbEntity
  8
LAYER_1
 62
     7
100
AcDbMText
 10
33.118736
 20
136.659149
 30
0.0
 40
2.557429
 41
0.0
 71
     1
 72
     2
  1
\W0.50;\fMS Gothic|b0|i0|c128;(20)
  7
STD
210
0.0
220
0.0
230
1.0
 11
1.000001
 21
0.0
 31
0.0
 73
     1
 44
1.0
  0
MTEXT
  5
13E
100
AcDbEntity
  8
LAYER_1
 62
     7
100
AcDbMText
 10
51.273873
 20
136.506531
 30
0.0
 40
2.557429
 41
0.0
 71
     1
 72
     2
  1
\W0.50;\fMS Gothic|b0|i0|c128;(180)
  7
STD
210
0.0
220
0.0
230
1.0
 11
1.000001
 21
0.0
 31
0.0
 73
     1
 44
1.0
  0
LINE
  5
13D
100
AcDbEntity
  8
LAYER_1
 62
     7
100
AcDbLine
 10
67.100986
 20
133.569453
 30
0.0
 11
32.40164
 21
133.569453
 31
0.0
  0
MTEXT
  5
13C
100
AcDbEntity
  8
LAYER_1
 62
     7
100
AcDbMText
 10
125.009768
 20
117.932988
 30
0.0
 40
2.557429
 41
0.0
 71
     1
 72
     2
  1
\W0.50;\fMS Gothic|b0|i0|c128;伸縮目地
  7
KANJISTD
210
0.0
220
0.0
230
1.0
 11
1.000001
 21
0.0
 31
0.0
 73
     1
 44
1.0
  0
MTEXT
  5
13B
100
AcDbEntity
  8
LAYER_1
 62
     7
100
AcDbMText
 10
121.181923
 20
111.770056
 30
0.0
 40
2.557429
 41
0.0
 71
     1
 72
     2
  1
\W0.50;\fMS Gothic|b0|i0|c128;溶接金網
  7
KANJISTD
210
0.0
220
0.0
230
1.0
 11
1.000001
 21
0.0
 31
0.0
 73
     1
 44
1.0
  0
POLYLINE
  5
136
100
AcDbEntity
  8
LAYER_1
 62
     7
100
AcDb2dPolyline
 66
     1
 10
0.0
 20
0.0
 30
0.0
  0
VERTEX
  5
137
100
AcDbEntity
  8
LAYER_1
 62
     7
100
AcDbVertex
100
AcDb2dVertex
 10
78.094458
 20
99.7176
 30
0.0
  0
VERTEX
  5
138
100
AcDbEntity
  8
LAYER_1
 62
     7
100
AcDbVertex
100
AcDb2dVertex
 10
89.805199
 20
99.7176
 30
0.0
  0
VERTEX
  5
139
100
AcDbEntity
  8
LAYER_1
 62
     7
100
AcDbVertex
100
AcDb2dVertex
 10
89.805199
 20
114.122233
 30
0.0
  0
SEQEND
  5
13A
100
AcDbEntity
  8
LAYER_1
 62
     7
  0
MTEXT
  5
135
100
AcDbEntity
  8
LAYER_1
 62
     7
100
AcDbMText
 10
92.548184
 20
124.418725
 30
0.0
 40
2.557429
 41
0.0
 71
     1
 72
     2
  1
\W0.50;\fMS Gothic|b0|i0|c128;アンカー
  7
KANJISTD
210
0.0
220
0.0
230
1.0
 11
1.000001
 21
0.0
 31
0.0
 73
     1
 44
1.0
  0
MTEXT
  5
134
100
AcDbEntity
  8
LAYER_1
 62
     7
100
AcDbMText
 10
86.87191
 20
107.513506
 30
0.0
 40
2.557429
 41
0.0
 71
     1
 72
     2
  1
\W0.50;\fMS Gothic|b0|i0|c128;50以下
  7
KANJISTD
210
0.0
220
0.0
230
1.0
 11
0.0
 21
1.0
 31
0.0
 73
     1
 44
1.0
  0
MTEXT
  5
133
100
AcDbEntity
  8
LAYER_1
 62
     7
100
AcDbMText
 10
70.832713
 20
86.137168
 30
0.0
 40
2.557429
 41
0.0
 71
     1
 72
     2
  1
\W0.50;\fMS Gothic|b0|i0|c128;30以上
  7
KANJISTD
210
0.0
220
0.0
230
1.0
 11
1.000001
 21
0.0
 31
0.0
 73
     1
 44
1.0
  0
MTEXT
  5
132
100
AcDbEntity
  8
LAYER_1
 62
     7
100
AcDbMText
 10
102.559804
 20
75.117341
 30
0.0
 40
2.557429
 41
0.0
 71
     1
 72
     2
  1
\W0.50;\fMS Gothic|b0|i0|c128;600程度
  7
KANJISTD
210
0.0
220
0.0
230
1.0
 11
1.000001
 21
0.0
 31
0.0
 73
     1
 44
1.0
  0
MTEXT
  5
131
100
AcDbEntity
  8
LAYER_1
 62
     7
100
AcDbMText
 10
142.688276
 20
110.403043
 30
0.0
 40
2.557429
 41
0.0
 71
     1
 72
     2
  1
\W0.50;\fMS Gothic|b0|i0|c128;(25)
  7
STD
210
0.0
220
0.0
230
1.0
 11
1.000001
 21
0.0
 31
0.0
 73
     1
 44
1.0
  0
MTEXT
  5
130
100
AcDbEntity
  8
LAYER_1
 62
     7
100
AcDbMText
 10
116.847514
 20
95.842901
 30
0.0
 40
2.557429
 41
0.0
 71
     1
 72
     2
  1
\W0.50;\fMS Gothic|b0|i0|c128;(80)
  7
STD
210
0.0
220
0.0
230
1.0
 11
0.0
 21
1.0
 31
0.0
 73
     1
 44
1.0
  0
LINE
  5
12F
100
AcDbEntity
  8
LAYER_1
 62
     7
100
AcDbLine
 10
120.023682
 20
94.057308
 30
0.0
 11
120.023682
 21
104.654422
 31
0.0
  0
POLYLINE
  5
129
100
AcDbEntity
  8
LAYER_1
 62
     7
100
AcDb2dPolyline
 66
     1
 10
0.0
 20
0.0
 30
0.0
  0
VERTEX
  5
12A
100
AcDbEntity
  8
LAYER_1
 62
     7
100
AcDbVertex
100
AcDb2dVertex
 10
144.007403
 20
94.864838
 30
0.0
  0
VERTEX
  5
12B
100
AcDbEntity
  8
LAYER_1
 62
     7
100
AcDbVertex
100
AcDb2dVertex
 10
144.007403
 20
72.302563
 30
0.0
  0
VERTEX
  5
12C
100
AcDbEntity
  8
LAYER_1
 62
     7
100
AcDbVertex
100
AcDb2dVertex
 10
69.048326
 20
72.302563
 30
0.0
  0
VERTEX
  5
12D
100
AcDbEntity
  8
LAYER_1
 62
     7
100
AcDbVertex
100
AcDb2dVertex
 10
69.048326
 20
96.5457
 30
0.0
  0
SEQEND
  5
12E
100
AcDbEntity
  8
LAYER_1
 62
     7
  0
POLYLINE
  5
123
100
AcDbEntity
  8
LAYER_1
 62
     7
100
AcDb2dPolyline
 66
     1
 10
0.0
 20
0.0
 30
0.0
  0
VERTEX
  5
124
100
AcDbEntity
  8
LAYER_1
 62
     7
100
AcDbVertex
100
AcDb2dVertex
 10
145.754066
 20
105.167396
 30
0.0
  0
VERTEX
  5
125
100
AcDbEntity
  8
LAYER_1
 62
     7
100
AcDbVertex
100
AcDb2dVertex
 10
145.754066
 20
107.380526
 30
0.0
  0
VERTEX
  5
126
100
AcDbEntity
  8
LAYER_1
 62
     7
100
AcDbVertex
100
AcDb2dVertex
 10
142.392342
 20
107.380526
 30
0.0
  0
VERTEX
  5
127
100
AcDbEntity
  8
LAYER_1
 62
     7
100
AcDbVertex
100
AcDb2dVertex
 10
142.392342
 20
105.167396
 30
0.0
  0
SEQEND
  5
128
100
AcDbEntity
  8
LAYER_1
 62
     7
  0
POLYLINE
  5
11D
100
AcDbEntity
  8
LAYER_1
 62
     7
100
AcDb2dPolyline
 66
     1
 10
0.0
 20
0.0
 30
0.0
 70
     1
  0
VERTEX
  5
11E
100
AcDbEntity
  8
LAYER_1
 62
     7
100
AcDbVertex
100
AcDb2dVertex
 10
145.6986
 20
94.512061
 30
0.0
  0
VERTEX
  5
11F
100
AcDbEntity
  8
LAYER_1
 62
     7
100
AcDbVertex
100
AcDb2dVertex
 10
145.6986
 20
104.483889
 30
0.0
  0
VERTEX
  5
120
100
AcDbEntity
  8
LAYER_1
 62
     7
100
AcDbVertex
100
AcDb2dVertex
 10
142.468479
 20
104.483889
 30
0.0
  0
VERTEX
  5
121
100
AcDbEntity
  8
LAYER_1
 62
     7
100
AcDbVertex
100
AcDb2dVertex
 10
142.468479
 20
94.512061
 30
0.0
  0
SEQEND
  5
122
100
AcDbEntity
  8
LAYER_1
 62
     7
  0
LINE
  5
11C
100
AcDbEntity
  8
LAYER_1
 62
     7
100
AcDbLine
 10
195.841276
 20
94.455216
 30
0.0
 11
74.741863
 21
94.455216
 31
0.0
  0
POLYLINE
  5
116
100
AcDbEntity
  8
LAYER_1
 62
     7
100
AcDb2dPolyline
 66
     1
 10
0.0
 20
0.0
 30
0.0
  0
VERTEX
  5
117
100
AcDbEntity
  8
LAYER_1
 62
     7
100
AcDbVertex
100
AcDb2dVertex
 10
195.841276
 20
94.067643
 30
0.0
  0
VERTEX
  5
118
100
AcDbEntity
  8
LAYER_1
 62
     7
100
AcDbVertex
100
AcDb2dVertex
 10
79.776698
 20
94.067643
 30
0.0
  0
VERTEX
  5
119
100
AcDbEntity
  8
LAYER_1
 62
     7
100
AcDbVertex
100
AcDb2dVertex
 10
79.776698
 20
90.837866
 30
0.0
  0
VERTEX
  5
11A
100
AcDbEntity
  8
LAYER_1
 62
     7
100
AcDbVertex
100
AcDb2dVertex
 10
195.841276
 20
90.837866
 30
0.0
  0
SEQEND
  5
11B
100
AcDbEntity
  8
LAYER_1
 62
     7
  0
POLYLINE
  5
111
100
AcDbEntity
  8
LAYER_1
 62
     7
100
AcDb2dPolyline
 66
     1
 10
0.0
 20
0.0
 30
0.0
  0
VERTEX
  5
112
100
AcDbEntity
  8
LAYER_1
 62
     7
100
AcDbVertex
100
AcDb2dVertex
 10
79.840088
 20
169.989624
 30
0.0
  0
VERTEX
  5
113
100
AcDbEntity
  8
LAYER_1
 62
     7
100
AcDbVertex
100
AcDb2dVertex
 10
88.537748
 20
169.993414
 30
0.0
  0
VERTEX
  5
114
100
AcDbEntity
  8
LAYER_1
 62
     7
100
AcDbVertex
100
AcDb2dVertex
 10
88.537748
 20
176.907031
 30
0.0
  0
SEQEND
  5
115
100
AcDbEntity
  8
LAYER_1
 62
     7
  0
POLYLINE
  5
10C
100
AcDbEntity
  8
LAYER_1
 62
     7
100
AcDb2dPolyline
 66
     1
 10
0.0
 20
0.0
 30
0.0
  0
VERTEX
  5
10D
100
AcDbEntity
  8
LAYER_1
 62
     7
100
AcDbVertex
100
AcDb2dVertex
 10
88.521039
 20
171.709243
 30
0.0
  0
VERTEX
  5
10E
100
AcDbEntity
  8
LAYER_1
 62
     7
100
AcDbVertex
100
AcDb2dVertex
 10
162.162367
 20
171.711827
 30
0.0
  0
VERTEX
  5
10F
100
AcDbEntity
  8
LAYER_1
 62
     7
100
AcDbVertex
100
AcDb2dVertex
 10
162.162367
 20
104.427045
 30
0.0
  0
SEQEND
  5
110
100
AcDbEntity
  8
LAYER_1
 62
     7
  0
LINE
  5
10B
100
AcDbEntity
  8
LAYER_1
 62
     7
100
AcDbLine
 10
78.624314
 20
171.709243
 30
0.0
 11
88.42406
 21
171.709243
 31
0.0
  0
MTEXT
  5
10A
100
AcDbEntity
  8
LAYER_1
 62
     7
100
AcDbMText
 10
93.341417
 20
130.821779
 30
0.0
 40
2.557429
 41
0.0
 71
     1
 72
     2
  1
\W0.50;\fMS Gothic|b0|i0|c128;下部ホルダー
  7
KANJISTD
210
0.0
220
0.0
230
1.0
 11
1.000001
 21
0.0
 31
0.0
 73
     1
 44
1.0
  0
INSERT
  5
FB
100
AcDbEntity
  8
LAYER_1
 62
     7
100
AcDbBlockReference
  2
AI9-BLK1
 10
134.903135
 20
94.39131
 30
0.0
  0
POLYLINE
  5
F5
100
AcDbEntity
  8
LAYER_1
 62
     7
100
AcDb2dPolyline
 66
     1
 10
0.0
 20
0.0
 30
0.0
  0
VERTEX
  5
F6
100
AcDbEntity
  8
LAYER_1
 62
     7
100
AcDbVertex
100
AcDb2dVertex
 10
77.369093
 20
99.306944
 30
0.0
  0
VERTEX
  5
F7
100
AcDbEntity
  8
LAYER_1
 62
     7
100
AcDbVertex
100
AcDb2dVertex
 10
77.369093
 20
83.014743
 30
0.0
  0
VERTEX
  5
F8
100
AcDbEntity
  8
LAYER_1
 62
     7
100
AcDbVertex
100
AcDb2dVertex
 10
63.776813
 20
83.014743
 30
0.0
  0
SEQEND
  5
F9
100
AcDbEntity
  8
LAYER_1
 62
     7
  0
LINE
  5
F4
100
AcDbEntity
  8
LAYER_1
 62
     7
100
AcDbLine
 10
61.810181
 20
175.976683
 30
0.0
 11
61.810181
 21
169.608424
 31
0.0
  0
LINE
  5
F3
100
AcDbEntity
  8
LAYER_1
 62
     7
100
AcDbLine
 10
77.347734
 20
105.946332
 30
0.0
 11
77.347734
 21
99.578073
 31
0.0
  0
POLYLINE
  5
ED
100
AcDbEntity
  8
LAYER_1
 62
     7
100
AcDb2dPolyline
 66
     1
 10
0.0
 20
0.0
 30
0.0
 70
     1
  0
VERTEX
  5
EE
100
AcDbEntity
  8
LAYER_1
 62
     7
100
AcDbVertex
100
AcDb2dVertex
 10
78.288417
 20
106.3029
 30
0.0
  0
VERTEX
  5
EF
100
AcDbEntity
  8
LAYER_1
 62
     7
100
AcDbVertex
100
AcDb2dVertex
 10
78.288417
 20
171.594177
 30
0.0
  0
VERTEX
  5
F0
100
AcDbEntity
  8
LAYER_1
 62
     7
100
AcDbVertex
100
AcDb2dVertex
 10
76.352962
 20
171.594177
 30
0.0
  0
VERTEX
  5
F1
100
AcDbEntity
  8
LAYER_1
 62
     7
100
AcDbVertex
100
AcDb2dVertex
 10
76.352962
 20
106.3029
 30
0.0
  0
SEQEND
  5
F2
100
AcDbEntity
  8
LAYER_1
 62
     7
  0
POLYLINE
  5
E3
100
AcDbEntity
  8
LAYER_1
 62
     7
100
AcDb2dPolyline
 66
     1
 10
0.0
 20
0.0
 30
0.0
 70
     1
  0
VERTEX
  5
E4
100
AcDbEntity
  8
LAYER_1
 62
     7
100
AcDbVertex
100
AcDb2dVertex
 10
79.231512
 20
108.459185
 30
0.0
  0
VERTEX
  5
E5
100
AcDbEntity
  8
LAYER_1
 62
     7
100
AcDbVertex
100
AcDb2dVertex
 10
79.230134
 20
105.286252
 30
0.0
  0
VERTEX
  5
E6
100
AcDbEntity
  8
LAYER_1
 62
     7
100
AcDbVertex
100
AcDb2dVertex
 10
75.548016
 20
105.286252
 30
0.0
  0
VERTEX
  5
E7
100
AcDbEntity
  8
LAYER_1
 62
     7
100
AcDbVertex
100
AcDb2dVertex
 10
75.548016
 20
108.459185
 30
0.0
  0
VERTEX
  5
E8
100
AcDbEntity
  8
LAYER_1
 62
     7
100
AcDbVertex
100
AcDb2dVertex
 10
75.970557
 20
108.459185
 30
0.0
  0
VERTEX
  5
E9
100
AcDbEntity
  8
LAYER_1
 62
     7
100
AcDbVertex
100
AcDb2dVertex
 10
75.970557
 20
105.708621
 30
0.0
  0
VERTEX
  5
EA
100
AcDbEntity
  8
LAYER_1
 62
     7
100
AcDbVertex
100
AcDb2dVertex
 10
78.808971
 20
105.708621
 30
0.0
  0
VERTEX
  5
EB
100
AcDbEntity
  8
LAYER_1
 62
     7
100
AcDbVertex
100
AcDb2dVertex
 10
78.808971
 20
108.459185
 30
0.0
  0
SEQEND
  5
EC
100
AcDbEntity
  8
LAYER_1
 62
     7
  0
LINE
  5
E2
100
AcDbEntity
  8
LAYER_1
 62
     7
100
AcDbLine
 10
183.453402
 20
104.540734
 30
0.0
 11
193.671899
 21
94.320858
 31
0.0
  0
LINE
  5
E1
100
AcDbEntity
  8
LAYER_1
 62
     7
100
AcDbLine
 10
182.108436
 20
104.593788
 30
0.0
 11
192.375854
 21
94.324647
 31
0.0
  0
LINE
  5
E0
100
AcDbEntity
  8
LAYER_1
 62
     7
100
AcDbLine
 10
180.949506
 20
104.460463
 30
0.0
 11
191.069819
 21
94.339117
 31
0.0
  0
LINE
  5
DF
100
AcDbEntity
  8
LAYER_1
 62
     7
100
AcDbLine
 10
157.613463
 20
104.540734
 30
0.0
 11
167.762025
 21
94.390793
 31
0.0
  0
LINE
  5
DE
100
AcDbEntity
  8
LAYER_1
 62
     7
100
AcDbLine
 10
156.268498
 20
104.593788
 30
0.0
 11
166.466325
 21
94.394583
 31
0.0
  0
LINE
  5
DD
100
AcDbEntity
  8
LAYER_1
 62
     7
100
AcDbLine
 10
155.109568
 20
104.460463
 30
0.0
 11
165.159945
 21
94.408708
 31
0.0
  0
LINE
  5
DC
100
AcDbEntity
  8
LAYER_1
 62
     7
100
AcDbLine
 10
131.772146
 20
104.540734
 30
0.0
 11
141.852151
 21
94.460384
 31
0.0
  0
LINE
  5
DB
100
AcDbEntity
  8
LAYER_1
 62
     7
100
AcDbLine
 10
130.427181
 20
104.593788
 30
0.0
 11
140.556451
 21
94.464518
 31
0.0
  0
LINE
  5
DA
100
AcDbEntity
  8
LAYER_1
 62
     7
100
AcDbLine
 10
129.269284
 20
104.460463
 30
0.0
 11
139.248692
 21
94.480021
 31
0.0
  0
LINE
  5
D9
100
AcDbEntity
  8
LAYER_1
 62
     7
100
AcDbLine
 10
105.932208
 20
104.540734
 30
0.0
 11
116.026337
 21
94.446259
 31
0.0
  0
LINE
  5
D8
100
AcDbEntity
  8
LAYER_1
 62
     7
100
AcDbLine
 10
104.58707
 20
104.593788
 30
0.0
 11
114.732015
 21
94.449015
 31
0.0
  0
LINE
  5
D7
100
AcDbEntity
  8
LAYER_1
 62
     7
100
AcDbLine
 10
103.42814
 20
104.460463
 30
0.0
 11
113.424257
 21
94.464518
 31
0.0
  0
LINE
  5
D6
100
AcDbEntity
  8
LAYER_1
 62
     7
100
AcDbLine
 10
80.092097
 20
104.540734
 30
0.0
 11
90.230324
 21
94.401128
 31
0.0
  0
LINE
  5
D5
100
AcDbEntity
  8
LAYER_1
 62
     7
100
AcDbLine
 10
78.747131
 20
104.593788
 30
0.0
 11
88.935829
 21
94.404918
 31
0.0
  0
LINE
  5
D4
100
AcDbEntity
  8
LAYER_1
 62
     7
100
AcDbLine
 10
195.809926
 20
92.275849
 30
0.0
 11
194.449457
 21
90.914003
 31
0.0
  0
LINE
  5
D3
100
AcDbEntity
  8
LAYER_1
 62
     7
100
AcDbLine
 10
194.400537
 20
94.019756
 30
0.0
 11
195.837142
 21
92.583152
 31
0.0
  0
LINE
  5
D2
100
AcDbEntity
  8
LAYER_1
 62
     7
100
AcDbLine
 10
194.970356
 20
94.019756
 30
0.0
 11
191.865636
 21
90.914003
 31
0.0
  0
LINE
  5
D1
100
AcDbEntity
  8
LAYER_1
 62
     7
100
AcDbLine
 10
191.816371
 20
94.019756
 30
0.0
 11
194.922469
 21
90.914003
 31
0.0
  0
LINE
  5
D0
100
AcDbEntity
  8
LAYER_1
 62
     7
100
AcDbLine
 10
192.38619
 20
94.019756
 30
0.0
 11
189.28147
 21
90.914003
 31
0.0
  0
LINE
  5
CF
100
AcDbEntity
  8
LAYER_1
 62
     7
100
AcDbLine
 10
189.232549
 20
94.019756
 30
0.0
 11
192.337269
 21
90.914003
 31
0.0
  0
LINE
  5
CE
100
AcDbEntity
  8
LAYER_1
 62
     7
100
AcDbLine
 10
189.802368
 20
94.019756
 30
0.0
 11
186.697648
 21
90.914003
 31
0.0
  0
LINE
  5
CD
100
AcDbEntity
  8
LAYER_1
 62
     7
100
AcDbLine
 10
186.648383
 20
94.019756
 30
0.0
 11
189.754481
 21
90.914003
 31
0.0
  0
LINE
  5
CC
100
AcDbEntity
  8
LAYER_1
 62
     7
100
AcDbLine
 10
187.218202
 20
94.019756
 30
0.0
 11
184.113482
 21
90.914003
 31
0.0
  0
LINE
  5
CB
100
AcDbEntity
  8
LAYER_1
 62
     7
100
AcDbLine
 10
184.064562
 20
94.019756
 30
0.0
 11
187.169282
 21
90.914003
 31
0.0
  0
LINE
  5
CA
100
AcDbEntity
  8
LAYER_1
 62
     7
100
AcDbLine
 10
184.63438
 20
94.019756
 30
0.0
 11
181.52966
 21
90.914003
 31
0.0
  0
LINE
  5
C9
100
AcDbEntity
  8
LAYER_1
 62
     7
100
AcDbLine
 10
181.480396
 20
94.019756
 30
0.0
 11
184.585116
 21
90.914003
 31
0.0
  0
LINE
  5
C8
100
AcDbEntity
  8
LAYER_1
 62
     7
100
AcDbLine
 10
182.050214
 20
94.019756
 30
0.0
 11
178.945494
 21
90.914003
 31
0.0
  0
LINE
  5
C7
100
AcDbEntity
  8
LAYER_1
 62
     7
100
AcDbLine
 10
178.896574
 20
94.019756
 30
0.0
 11
182.002327
 21
90.914003
 31
0.0
  0
LINE
  5
C6
100
AcDbEntity
  8
LAYER_1
 62
     7
100
AcDbLine
 10
179.466393
 20
94.019756
 30
0.0
 11
176.361673
 21
90.914003
 31
0.0
  0
LINE
  5
C5
100
AcDbEntity
  8
LAYER_1
 62
     7
100
AcDbLine
 10
176.312408
 20
94.019756
 30
0.0
 11
179.417128
 21
90.914003
 31
0.0
  0
LINE
  5
C4
100
AcDbEntity
  8
LAYER_1
 62
     7
100
AcDbLine
 10
176.882227
 20
94.019756
 30
0.0
 11
173.777507
 21
90.914003
 31
0.0
  0
LINE
  5
C3
100
AcDbEntity
  8
LAYER_1
 62
     7
100
AcDbLine
 10
173.728586
 20
94.019756
 30
0.0
 11
176.833306
 21
90.914003
 31
0.0
  0
LINE
  5
C2
100
AcDbEntity
  8
LAYER_1
 62
     7
100
AcDbLine
 10
174.298405
 20
94.019756
 30
0.0
 11
171.193685
 21
90.914003
 31
0.0
  0
LINE
  5
C1
100
AcDbEntity
  8
LAYER_1
 62
     7
100
AcDbLine
 10
171.14442
 20
94.019756
 30
0.0
 11
174.250518
 21
90.914003
 31
0.0
  0
LINE
  5
C0
100
AcDbEntity
  8
LAYER_1
 62
     7
100
AcDbLine
 10
171.714239
 20
94.019756
 30
0.0
 11
168.609519
 21
90.914003
 31
0.0
  0
LINE
  5
BF
100
AcDbEntity
  8
LAYER_1
 62
     7
100
AcDbLine
 10
168.560598
 20
94.019756
 30
0.0
 11
171.665318
 21
90.914003
 31
0.0
  0
LINE
  5
BE
100
AcDbEntity
  8
LAYER_1
 62
     7
100
AcDbLine
 10
169.130073
 20
94.019756
 30
0.0
 11
166.025697
 21
90.914003
 31
0.0
  0
LINE
  5
BD
100
AcDbEntity
  8
LAYER_1
 62
     7
100
AcDbLine
 10
165.976432
 20
94.019756
 30
0.0
 11
169.081152
 21
90.914003
 31
0.0
  0
LINE
  5
BC
100
AcDbEntity
  8
LAYER_1
 62
     7
100
AcDbLine
 10
166.546251
 20
94.019756
 30
0.0
 11
163.441531
 21
90.914003
 31
0.0
  0
LINE
  5
BB
100
AcDbEntity
  8
LAYER_1
 62
     7
100
AcDbLine
 10
163.392611
 20
94.019756
 30
0.0
 11
166.498364
 21
90.914003
 31
0.0
  0
LINE
  5
BA
100
AcDbEntity
  8
LAYER_1
 62
     7
100
AcDbLine
 10
163.962085
 20
94.019756
 30
0.0
 11
160.857709
 21
90.914003
 31
0.0
  0
LINE
  5
B9
100
AcDbEntity
  8
LAYER_1
 62
     7
100
AcDbLine
 10
160.808445
 20
94.019756
 30
0.0
 11
163.913165
 21
90.914003
 31
0.0
  0
LINE
  5
B8
100
AcDbEntity
  8
LAYER_1
 62
     7
100
AcDbLine
 10
161.378263
 20
94.019756
 30
0.0
 11
158.273543
 21
90.914003
 31
0.0
  0
LINE
  5
B7
100
AcDbEntity
  8
LAYER_1
 62
     7
100
AcDbLine
 10
158.224623
 20
94.019756
 30
0.0
 11
161.329343
 21
90.914003
 31
0.0
  0
LINE
  5
B6
100
AcDbEntity
  8
LAYER_1
 62
     7
100
AcDbLine
 10
158.794097
 20
94.019756
 30
0.0
 11
155.689722
 21
90.914003
 31
0.0
  0
LINE
  5
B5
100
AcDbEntity
  8
LAYER_1
 62
     7
100
AcDbLine
 10
155.640457
 20
94.019756
 30
0.0
 11
158.745177
 21
90.914003
 31
0.0
  0
LINE
  5
B4
100
AcDbEntity
  8
LAYER_1
 62
     7
100
AcDbLine
 10
156.210276
 20
94.019756
 30
0.0
 11
153.105556
 21
90.914003
 31
0.0
  0
LINE
  5
B3
100
AcDbEntity
  8
LAYER_1
 62
     7
100
AcDbLine
 10
153.056291
 20
94.019756
 30
0.0
 11
156.161011
 21
90.914003
 31
0.0
  0
LINE
  5
B2
100
AcDbEntity
  8
LAYER_1
 62
     7
100
AcDbLine
 10
153.626109
 20
94.019756
 30
0.0
 11
150.521734
 21
90.914003
 31
0.0
  0
LINE
  5
B1
100
AcDbEntity
  8
LAYER_1
 62
     7
100
AcDbLine
 10
150.472469
 20
94.019756
 30
0.0
 11
153.577189
 21
90.914003
 31
0.0
  0
LINE
  5
B0
100
AcDbEntity
  8
LAYER_1
 62
     7
100
AcDbLine
 10
151.042288
 20
94.019756
 30
0.0
 11
147.937568
 21
90.914003
 31
0.0
  0
LINE
  5
AF
100
AcDbEntity
  8
LAYER_1
 62
     7
100
AcDbLine
 10
147.888303
 20
94.019756
 30
0.0
 11
150.993023
 21
90.914003
 31
0.0
  0
LINE
  5
AE
100
AcDbEntity
  8
LAYER_1
 62
     7
100
AcDbLine
 10
148.458122
 20
94.019756
 30
0.0
 11
145.352368
 21
90.914003
 31
0.0
  0
LINE
  5
AD
100
AcDbEntity
  8
LAYER_1
 62
     7
100
AcDbLine
 10
145.304481
 20
94.019756
 30
0.0
 11
148.409201
 21
90.914003
 31
0.0
  0
LINE
  5
AC
100
AcDbEntity
  8
LAYER_1
 62
     7
100
AcDbLine
 10
145.100187
 20
104.530398
 30
0.0
 11
142.540826
 21
101.970692
 31
0.0
  0
LINE
  5
AB
100
AcDbEntity
  8
LAYER_1
 62
     7
100
AcDbLine
 10
143.070681
 20
104.498014
 30
0.0
 11
145.597659
 21
101.970692
 31
0.0
  0
LINE
  5
AA
100
AcDbEntity
  8
LAYER_1
 62
     7
100
AcDbLine
 10
145.646924
 20
102.491591
 30
0.0
 11
142.540826
 21
99.386871
 31
0.0
  0
LINE
  5
A9
100
AcDbEntity
  8
LAYER_1
 62
     7
100
AcDbLine
 10
142.492939
 20
102.491591
 30
0.0
 11
145.597659
 21
99.386871
 31
0.0
  0
LINE
  5
A8
100
AcDbEntity
  8
LAYER_1
 62
     7
100
AcDbLine
 10
145.646924
 20
99.907425
 30
0.0
 11
142.540826
 21
96.802705
 31
0.0
  0
LINE
  5
A7
100
AcDbEntity
  8
LAYER_1
 62
     7
100
AcDbLine
 10
142.492939
 20
99.907425
 30
0.0
 11
145.597659
 21
96.802705
 31
0.0
  0
LINE
  5
A6
100
AcDbEntity
  8
LAYER_1
 62
     7
100
AcDbLine
 10
145.646924
 20
97.323603
 30
0.0
 11
142.916686
 21
94.594743
 31
0.0
  0
LINE
  5
A5
100
AcDbEntity
  8
LAYER_1
 62
     7
100
AcDbLine
 10
142.492939
 20
97.323603
 30
0.0
 11
145.308271
 21
94.508271
 31
0.0
  0
LINE
  5
A4
100
AcDbEntity
  8
LAYER_1
 62
     7
100
AcDbLine
 10
145.8743
 20
94.019756
 30
0.0
 11
142.76958
 21
90.914003
 31
0.0
  0
LINE
  5
A3
100
AcDbEntity
  8
LAYER_1
 62
     7
100
AcDbLine
 10
142.720315
 20
94.019756
 30
0.0
 11
145.825035
 21
90.914003
 31
0.0
  0
LINE
  5
A2
100
AcDbEntity
  8
LAYER_1
 62
     7
100
AcDbLine
 10
143.290134
 20
94.019756
 30
0.0
 11
140.185758
 21
90.914003
 31
0.0
  0
LINE
  5
A1
100
AcDbEntity
  8
LAYER_1
 62
     7
100
AcDbLine
 10
140.136494
 20
94.019756
 30
0.0
 11
143.241214
 21
90.914003
 31
0.0
  0
LINE
  5
A0
100
AcDbEntity
  8
LAYER_1
 62
     7
100
AcDbLine
 10
140.706312
 20
94.019756
 30
0.0
 11
137.600214
 21
90.914003
 31
0.0
  0
LINE
  5
9F
100
AcDbEntity
  8
LAYER_1
 62
     7
100
AcDbLine
 10
137.552327
 20
94.019756
 30
0.0
 11
140.657048
 21
90.914003
 31
0.0
  0
LINE
  5
9E
100
AcDbEntity
  8
LAYER_1
 62
     7
100
AcDbLine
 10
138.122146
 20
94.019756
 30
0.0
 11
135.017426
 21
90.914003
 31
0.0
  0
LINE
  5
9D
100
AcDbEntity
  8
LAYER_1
 62
     7
100
AcDbLine
 10
134.968506
 20
94.019756
 30
0.0
 11
138.073226
 21
90.914003
 31
0.0
  0
LINE
  5
9C
100
AcDbEntity
  8
LAYER_1
 62
     7
100
AcDbLine
 10
135.538325
 20
94.019756
 30
0.0
 11
132.433605
 21
90.914003
 31
0.0
  0
LINE
  5
9B
100
AcDbEntity
  8
LAYER_1
 62
     7
100
AcDbLine
 10
132.38434
 20
94.019756
 30
0.0
 11
135.48906
 21
90.914003
 31
0.0
  0
LINE
  5
9A
100
AcDbEntity
  8
LAYER_1
 62
     7
100
AcDbLine
 10
132.954159
 20
94.019756
 30
0.0
 11
129.848405
 21
90.914003
 31
0.0
  0
LINE
  5
99
100
AcDbEntity
  8
LAYER_1
 62
     7
100
AcDbLine
 10
129.800518
 20
94.019756
 30
0.0
 11
132.905238
 21
90.914003
 31
0.0
  0
LINE
  5
98
100
AcDbEntity
  8
LAYER_1
 62
     7
100
AcDbLine
 10
130.370337
 20
94.019756
 30
0.0
 11
127.265617
 21
90.914003
 31
0.0
  0
LINE
  5
97
100
AcDbEntity
  8
LAYER_1
 62
     7
100
AcDbLine
 10
127.216352
 20
94.019756
 30
0.0
 11
130.321072
 21
90.914003
 31
0.0
  0
LINE
  5
96
100
AcDbEntity
  8
LAYER_1
 62
     7
100
AcDbLine
 10
127.786171
 20
94.019756
 30
0.0
 11
124.680417
 21
90.914003
 31
0.0
  0
LINE
  5
95
100
AcDbEntity
  8
LAYER_1
 62
     7
100
AcDbLine
 10
124.63253
 20
94.019756
 30
0.0
 11
127.73725
 21
90.914003
 31
0.0
  0
LINE
  5
94
100
AcDbEntity
  8
LAYER_1
 62
     7
100
AcDbLine
 10
125.202349
 20
94.019756
 30
0.0
 11
122.096251
 21
90.914003
 31
0.0
  0
LINE
  5
93
100
AcDbEntity
  8
LAYER_1
 62
     7
100
AcDbLine
 10
122.048364
 20
94.019756
 30
0.0
 11
125.153084
 21
90.914003
 31
0.0
  0
LINE
  5
92
100
AcDbEntity
  8
LAYER_1
 62
     7
100
AcDbLine
 10
122.618183
 20
94.019756
 30
0.0
 11
119.513463
 21
90.914003
 31
0.0
  0
LINE
  5
91
100
AcDbEntity
  8
LAYER_1
 62
     7
100
AcDbLine
 10
119.464543
 20
94.019756
 30
0.0
 11
122.568918
 21
90.914003
 31
0.0
  0
LINE
  5
90
100
AcDbEntity
  8
LAYER_1
 62
     7
100
AcDbLine
 10
120.034361
 20
94.019756
 30
0.0
 11
116.928263
 21
90.914003
 31
0.0
  0
LINE
  5
8F
100
AcDbEntity
  8
LAYER_1
 62
     7
100
AcDbLine
 10
116.880377
 20
94.019756
 30
0.0
 11
119.985097
 21
90.914003
 31
0.0
  0
LINE
  5
8E
100
AcDbEntity
  8
LAYER_1
 62
     7
100
AcDbLine
 10
117.450195
 20
94.019756
 30
0.0
 11
114.344097
 21
90.914003
 31
0.0
  0
LINE
  5
8D
100
AcDbEntity
  8
LAYER_1
 62
     7
100
AcDbLine
 10
114.296555
 20
94.019756
 30
0.0
 11
117.40093
 21
90.914003
 31
0.0
  0
LINE
  5
8C
100
AcDbEntity
  8
LAYER_1
 62
     7
100
AcDbLine
 10
114.866374
 20
94.019756
 30
0.0
 11
111.760276
 21
90.914003
 31
0.0
  0
LINE
  5
8B
100
AcDbEntity
  8
LAYER_1
 62
     7
100
AcDbLine
 10
111.712389
 20
94.019756
 30
0.0
 11
114.817109
 21
90.914003
 31
0.0
  0
LINE
  5
8A
100
AcDbEntity
  8
LAYER_1
 62
     7
100
AcDbLine
 10
112.282208
 20
94.019756
 30
0.0
 11
109.176109
 21
90.914003
 31
0.0
  0
LINE
  5
89
100
AcDbEntity
  8
LAYER_1
 62
     7
100
AcDbLine
 10
109.128567
 20
94.019756
 30
0.0
 11
112.232943
 21
90.914003
 31
0.0
  0
LINE
  5
88
100
AcDbEntity
  8
LAYER_1
 62
     7
100
AcDbLine
 10
109.698041
 20
94.019756
 30
0.0
 11
106.592288
 21
90.914003
 31
0.0
  0
LINE
  5
87
100
AcDbEntity
  8
LAYER_1
 62
     7
100
AcDbLine
 10
106.544401
 20
94.019756
 30
0.0
 11
109.649121
 21
90.914003
 31
0.0
  0
LINE
  5
86
100
AcDbEntity
  8
LAYER_1
 62
     7
100
AcDbLine
 10
107.11422
 20
94.019756
 30
0.0
 11
104.008294
 21
90.914003
 31
0.0
  0
LINE
  5
85
100
AcDbEntity
  8
LAYER_1
 62
     7
100
AcDbLine
 10
103.960407
 20
94.019756
 30
0.0
 11
107.064955
 21
90.914003
 31
0.0
  0
LINE
  5
84
100
AcDbEntity
  8
LAYER_1
 62
     7
100
AcDbLine
 10
104.530226
 20
94.019756
 30
0.0
 11
101.424128
 21
90.914003
 31
0.0
  0
LINE
  5
83
100
AcDbEntity
  8
LAYER_1
 62
     7
100
AcDbLine
 10
101.376413
 20
94.019756
 30
0.0
 11
104.481133
 21
90.914003
 31
0.0
  0
LINE
  5
82
100
AcDbEntity
  8
LAYER_1
 62
     7
100
AcDbLine
 10
101.946232
 20
94.019756
 30
0.0
 11
98.840306
 21
90.914003
 31
0.0
  0
LINE
  5
81
100
AcDbEntity
  8
LAYER_1
 62
     7
100
AcDbLine
 10
98.792419
 20
94.019756
 30
0.0
 11
101.897139
 21
90.914003
 31
0.0
  0
LINE
  5
80
100
AcDbEntity
  8
LAYER_1
 62
     7
100
AcDbLine
 10
99.362238
 20
94.019756
 30
0.0
 11
96.25614
 21
90.914003
 31
0.0
  0
LINE
  5
7F
100
AcDbEntity
  8
LAYER_1
 62
     7
100
AcDbLine
 10
96.208426
 20
94.019756
 30
0.0
 11
99.313146
 21
90.914003
 31
0.0
  0
LINE
  5
7E
100
AcDbEntity
  8
LAYER_1
 62
     7
100
AcDbLine
 10
96.778244
 20
94.019756
 30
0.0
 11
93.672319
 21
90.914003
 31
0.0
  0
LINE
  5
7D
100
AcDbEntity
  8
LAYER_1
 62
     7
100
AcDbLine
 10
93.624432
 20
94.019756
 30
0.0
 11
96.728979
 21
90.914003
 31
0.0
  0
LINE
  5
7C
100
AcDbEntity
  8
LAYER_1
 62
     7
100
AcDbLine
 10
94.19425
 20
94.019756
 30
0.0
 11
91.088152
 21
90.914003
 31
0.0
  0
LINE
  5
7B
100
AcDbEntity
  8
LAYER_1
 62
     7
100
AcDbLine
 10
91.040438
 20
94.019756
 30
0.0
 11
94.145158
 21
90.914003
 31
0.0
  0
LINE
  5
7A
100
AcDbEntity
  8
LAYER_1
 62
     7
100
AcDbLine
 10
70.553144
 20
104.607913
 30
0.0
 11
69.323245
 21
103.378014
 31
0.0
  0
LINE
  5
79
100
AcDbEntity
  8
LAYER_1
 62
     7
100
AcDbLine
 10
74.215625
 20
93.530208
 30
0.0
 11
72.71942
 21
92.034003
 31
0.0
  0
LINE
  5
78
100
AcDbEntity
  8
LAYER_1
 62
     7
100
AcDbLine
 10
73.277525
 20
94.439714
 30
0.0
 11
71.795618
 21
92.959012
 31
0.0
  0
LINE
  5
77
100
AcDbEntity
  8
LAYER_1
 62
     7
100
AcDbLine
 10
72.36802
 20
95.377813
 30
0.0
 11
70.843566
 21
93.853014
 31
0.0
  0
LINE
  5
76
100
AcDbEntity
  8
LAYER_1
 62
     7
100
AcDbLine
 10
71.458515
 20
96.315568
 30
0.0
 11
69.948013
 21
94.805238
 31
0.0
  0
LINE
  5
75
100
AcDbEntity
  8
LAYER_1
 62
     7
100
AcDbLine
 10
71.372215
 20
98.03536
 30
0.0
 11
69.377333
 21
96.040649
 31
0.0
  0
LINE
  5
74
100
AcDbEntity
  8
LAYER_1
 62
     7
100
AcDbLine
 10
71.372215
 20
99.882964
 30
0.0
 11
69.323245
 21
97.8352
 31
0.0
  0
LINE
  5
73
100
AcDbEntity
  8
LAYER_1
 62
     7
100
AcDbLine
 10
71.372215
 20
101.730569
 30
0.0
 11
69.323245
 21
99.682804
 31
0.0
  0
LINE
  5
72
100
AcDbEntity
  8
LAYER_1
 62
     7
100
AcDbLine
 10
71.372215
 20
103.578174
 30
0.0
 11
69.323245
 21
101.530409
 31
0.0
  0
LINE
  5
71
100
AcDbEntity
  8
LAYER_1
 62
     7
100
AcDbLine
 10
77.244381
 20
92.987606
 30
0.0
 11
75.236751
 21
90.979804
 31
0.0
  0
LINE
  5
70
100
AcDbEntity
  8
LAYER_1
 62
     7
100
AcDbLine
 10
75.396948
 20
92.987606
 30
0.0
 11
73.642361
 21
91.237153
 31
0.0
  0
LINE
  5
6F
100
AcDbEntity
  8
LAYER_1
 62
     7
100
AcDbLine
 10
79.527445
 20
91.616802
 30
0.0
 11
78.846522
 21
90.936051
 31
0.0
  0
LINE
  5
6E
100
AcDbEntity
  8
LAYER_1
 62
     7
100
AcDbLine
 10
79.142456
 20
93.079245
 30
0.0
 11
76.998918
 21
90.936051
 31
0.0
  0
LINE
  5
6D
100
AcDbEntity
  8
LAYER_1
 62
     7
100
AcDbLine
 10
69.30378
 20
97.178909
 30
0.0
 11
75.544226
 21
90.938463
 31
0.0
  0
LINE
  5
6C
100
AcDbEntity
  8
LAYER_1
 62
     7
100
AcDbLine
 10
75.299969
 20
93.030325
 30
0.0
 11
77.364615
 21
90.964301
 31
0.0
  0
LINE
  5
6B
100
AcDbEntity
  8
LAYER_1
 62
     7
100
AcDbLine
 10
69.30378
 20
99.026514
 30
0.0
 11
71.297457
 21
97.032837
 31
0.0
  0
LINE
  5
6A
100
AcDbEntity
  8
LAYER_1
 62
     7
100
AcDbLine
 10
77.120357
 20
93.056163
 30
0.0
 11
79.214803
 21
90.962923
 31
0.0
  0
LINE
  5
69
100
AcDbEntity
  8
LAYER_1
 62
     7
100
AcDbLine
 10
69.30378
 20
102.721379
 30
0.0
 11
71.394264
 21
100.629861
 31
0.0
  0
LINE
  5
68
100
AcDbEntity
  8
LAYER_1
 62
     7
100
AcDbLine
 10
69.30378
 20
100.873774
 30
0.0
 11
71.394264
 21
98.782256
 31
0.0
  0
LINE
  5
67
100
AcDbEntity
  8
LAYER_1
 62
     7
100
AcDbLine
 10
78.956421
 20
93.06891
 30
0.0
 11
79.475769
 21
92.548356
 31
0.0
  0
LINE
  5
66
100
AcDbEntity
  8
LAYER_1
 62
     7
100
AcDbLine
 10
69.30378
 20
104.568983
 30
0.0
 11
71.418724
 21
102.452661
 31
0.0
  0
LINE
  5
65
100
AcDbEntity
  8
LAYER_1
 62
     7
100
AcDbLine
 10
81.274281
 20
94.019756
 30
0.0
 11
79.811666
 21
92.557313
 31
0.0
  0
LINE
  5
64
100
AcDbEntity
  8
LAYER_1
 62
     7
100
AcDbLine
 10
79.810288
 20
92.328559
 30
0.0
 11
81.225189
 21
90.914003
 31
0.0
  0
LINE
  5
63
100
AcDbEntity
  8
LAYER_1
 62
     7
100
AcDbLine
 10
83.858103
 20
94.019756
 30
0.0
 11
80.70584
 21
90.866116
 31
0.0
  0
LINE
  5
62
100
AcDbEntity
  8
LAYER_1
 62
     7
100
AcDbLine
 10
80.619196
 20
94.105195
 30
0.0
 11
83.80901
 21
90.914003
 31
0.0
  0
LINE
  5
61
100
AcDbEntity
  8
LAYER_1
 62
     7
100
AcDbLine
 10
86.442269
 20
94.019756
 30
0.0
 11
83.336171
 21
90.914003
 31
0.0
  0
LINE
  5
60
100
AcDbEntity
  8
LAYER_1
 62
     7
100
AcDbLine
 10
83.288456
 20
94.019756
 30
0.0
 11
86.393176
 21
90.914003
 31
0.0
  0
LINE
  5
5F
100
AcDbEntity
  8
LAYER_1
 62
     7
100
AcDbLine
 10
89.026263
 20
94.019756
 30
0.0
 11
85.920165
 21
90.914003
 31
0.0
  0
LINE
  5
5E
100
AcDbEntity
  8
LAYER_1
 62
     7
100
AcDbLine
 10
85.87245
 20
94.019756
 30
0.0
 11
88.97717
 21
90.914003
 31
0.0
  0
LINE
  5
5D
100
AcDbEntity
  8
LAYER_1
 62
     7
100
AcDbLine
 10
91.610257
 20
94.019756
 30
0.0
 11
88.504159
 21
90.914003
 31
0.0
  0
LINE
  5
5C
100
AcDbEntity
  8
LAYER_1
 62
     7
100
AcDbLine
 10
88.456444
 20
94.019756
 30
0.0
 11
91.561164
 21
90.914003
 31
0.0
  0
LINE
  5
5B
100
AcDbEntity
  8
LAYER_1
 62
     7
100
AcDbLine
 10
77.588029
 20
104.460463
 30
0.0
 11
87.632205
 21
94.416631
 31
0.0
  0
LINE
  5
5A
100
AcDbEntity
  8
LAYER_1
 62
     7
100
AcDbLine
 10
67.218464
 20
155.170201
 30
0.0
 11
48.975477
 21
173.411982
 31
0.0
  0
LINE
  5
59
100
AcDbEntity
  8
LAYER_1
 62
     7
100
AcDbLine
 10
67.179706
 20
156.499836
 30
0.0
 11
50.191252
 21
173.488291
 31
0.0
  0
LINE
  5
58
100
AcDbEntity
  8
LAYER_1
 62
     7
100
AcDbLine
 10
67.170749
 20
157.800876
 30
0.0
 11
51.483162
 21
173.488291
 31
0.0
  0
LINE
  5
57
100
AcDbEntity
  8
LAYER_1
 62
     7
100
AcDbLine
 10
67.218464
 20
129.330263
 30
0.0
 11
41.434163
 21
155.113357
 31
0.0
  0
LINE
  5
56
100
AcDbEntity
  8
LAYER_1
 62
     7
100
AcDbLine
 10
67.179706
 20
130.659725
 30
0.0
 11
41.373357
 21
156.466246
 31
0.0
  0
LINE
  5
55
100
AcDbEntity
  8
LAYER_1
 62
     7
100
AcDbLine
 10
67.170749
 20
131.960938
 30
0.0
 11
41.412115
 21
157.7194
 31
0.0
  0
LINE
  5
54
100
AcDbEntity
  8
LAYER_1
 62
     7
100
AcDbLine
 10
67.218464
 20
103.490324
 30
0.0
 11
41.434163
 21
129.273419
 31
0.0
  0
LINE
  5
53
100
AcDbEntity
  8
LAYER_1
 62
     7
100
AcDbLine
 10
67.179706
 20
104.819786
 30
0.0
 11
41.434163
 21
130.565329
 31
0.0
  0
LINE
  5
52
100
AcDbEntity
  8
LAYER_1
 62
     7
100
AcDbLine
 10
67.170749
 20
106.120654
 30
0.0
 11
41.434163
 21
131.857585
 31
0.0
  0
LINE
  5
51
100
AcDbEntity
  8
LAYER_1
 62
     7
100
AcDbLine
 10
53.940721
 20
65.086811
 30
0.0
 11
41.434163
 21
77.593197
 31
0.0
  0
LINE
  5
50
100
AcDbEntity
  8
LAYER_1
 62
     7
100
AcDbLine
 10
55.270184
 20
65.049259
 30
0.0
 11
41.434163
 21
78.885452
 31
0.0
  0
LINE
  5
4F
100
AcDbEntity
  8
LAYER_1
 62
     7
100
AcDbLine
 10
56.54263
 20
65.068552
 30
0.0
 11
41.434163
 21
80.177363
 31
0.0
  0
LINE
  5
4E
100
AcDbEntity
  8
LAYER_1
 62
     7
100
AcDbLine
 10
195.764795
 20
78.30392
 30
0.0
 11
185.27758
 21
88.791135
 31
0.0
  0
LINE
  5
4D
100
AcDbEntity
  8
LAYER_1
 62
     7
100
AcDbLine
 10
195.727243
 20
79.633382
 30
0.0
 11
186.578792
 21
88.7808
 31
0.0
  0
LINE
  5
4C
100
AcDbEntity
  8
LAYER_1
 62
     7
100
AcDbLine
 10
195.631814
 20
81.021067
 30
0.0
 11
187.851411
 21
88.800092
 31
0.0
  0
LINE
  5
4B
100
AcDbEntity
  8
LAYER_1
 62
     7
100
AcDbLine
 10
183.236361
 20
64.992415
 30
0.0
 11
159.437641
 21
88.791135
 31
0.0
  0
LINE
  5
4A
100
AcDbEntity
  8
LAYER_1
 62
     7
100
AcDbLine
 10
184.565823
 20
64.954864
 30
0.0
 11
160.738509
 21
88.7808
 31
0.0
  0
LINE
  5
49
100
AcDbEntity
  8
LAYER_1
 62
     7
100
AcDbLine
 10
185.895285
 20
64.916279
 30
0.0
 11
162.011472
 21
88.800092
 31
0.0
  0
LINE
  5
48
100
AcDbEntity
  8
LAYER_1
 62
     7
100
AcDbLine
 10
157.396422
 20
64.992415
 30
0.0
 11
133.597702
 21
88.791135
 31
0.0
  0
LINE
  5
47
100
AcDbEntity
  8
LAYER_1
 62
     7
100
AcDbLine
 10
158.725884
 20
64.954864
 30
0.0
 11
134.89857
 21
88.7808
 31
0.0
  0
LINE
  5
46
100
AcDbEntity
  8
LAYER_1
 62
     7
100
AcDbLine
 10
160.055347
 20
64.916279
 30
0.0
 11
136.171189
 21
88.800092
 31
0.0
  0
LINE
  5
45
100
AcDbEntity
  8
LAYER_1
 62
     7
100
AcDbLine
 10
131.556139
 20
64.992415
 30
0.0
 11
107.757764
 21
88.791135
 31
0.0
  0
LINE
  5
44
100
AcDbEntity
  8
LAYER_1
 62
     7
100
AcDbLine
 10
132.885601
 20
64.954864
 30
0.0
 11
109.058632
 21
88.7808
 31
0.0
  0
LINE
  5
43
100
AcDbEntity
  8
LAYER_1
 62
     7
100
AcDbLine
 10
134.215063
 20
64.916279
 30
0.0
 11
110.33125
 21
88.800092
 31
0.0
  0
LINE
  5
42
100
AcDbEntity
  8
LAYER_1
 62
     7
100
AcDbLine
 10
105.645231
 20
65.062351
 30
0.0
 11
81.91748
 21
88.791135
 31
0.0
  0
LINE
  5
41
100
AcDbEntity
  8
LAYER_1
 62
     7
100
AcDbLine
 10
106.976072
 20
65.024799
 30
0.0
 11
83.218693
 21
88.7808
 31
0.0
  0
LINE
  5
40
100
AcDbEntity
  8
LAYER_1
 62
     7
100
AcDbLine
 10
108.266604
 20
65.024799
 30
0.0
 11
84.491311
 21
88.800092
 31
0.0
  0
LINE
  5
3F
100
AcDbEntity
  8
LAYER_1
 62
     7
100
AcDbLine
 10
79.850423
 20
65.016876
 30
0.0
 11
41.434163
 21
103.43348
 31
0.0
  0
LINE
  5
3E
100
AcDbEntity
  8
LAYER_1
 62
     7
100
AcDbLine
 10
81.179886
 20
64.979669
 30
0.0
 11
41.434163
 21
104.725391
 31
0.0
  0
LINE
  5
3D
100
AcDbEntity
  8
LAYER_1
 62
     7
100
AcDbLine
 10
82.490055
 20
64.96141
 30
0.0
 11
41.434163
 21
106.017301
 31
0.0
  0
POLYLINE
  5
33
100
AcDbEntity
  8
LAYER_1
 62
     7
100
AcDb2dPolyline
 66
     1
 10
0.0
 20
0.0
 30
0.0
 70
     1
  0
VERTEX
  5
34
100
AcDbEntity
  8
LAYER_1
 62
     7
100
AcDbVertex
100
AcDb2dVertex
 10
73.840799
 20
90.943631
 30
0.0
  0
VERTEX
  5
35
100
AcDbEntity
  8
LAYER_1
 62
     7
100
AcDbVertex
100
AcDb2dVertex
 10
79.500229
 20
90.943631
 30
0.0
  0
VERTEX
  5
36
100
AcDbEntity
  8
LAYER_1
 62
     7
100
AcDbVertex
100
AcDb2dVertex
 10
79.500229
 20
93.056163
 30
0.0
  0
VERTEX
  5
37
100
AcDbEntity
  8
LAYER_1
 62
     7
100
AcDbVertex
100
AcDb2dVertex
 10
74.731011
 20
93.04445
 30
0.0
  0
VERTEX
  5
38
100
AcDbEntity
  8
LAYER_1
 62
     7
100
AcDbVertex
100
AcDb2dVertex
 10
71.39168
 20
96.286285
 30
0.0
  0
VERTEX
  5
39
100
AcDbEntity
  8
LAYER_1
 62
     7
100
AcDbVertex
100
AcDb2dVertex
 10
71.390474
 20
104.589654
 30
0.0
  0
VERTEX
  5
3A
100
AcDbEntity
  8
LAYER_1
 62
     7
100
AcDbVertex
100
AcDb2dVertex
 10
69.277942
 20
104.589654
 30
0.0
  0
VERTEX
  5
3B
100
AcDbEntity
  8
LAYER_1
 62
     7
100
AcDbVertex
100
AcDb2dVertex
 10
69.285693
 20
95.396417
 30
0.0
  0
SEQEND
  5
3C
100
AcDbEntity
  8
LAYER_1
 62
     7
  0
LINE
  5
32
100
AcDbEntity
  8
LAYER_1
 62
     7
100
AcDbLine
 10
116.103852
 20
98.29891
 30
0.0
 11
76.757416
 21
98.29891
 31
0.0
  0
LINE
  5
31
100
AcDbEntity
  8
LAYER_1
 62
     7
100
AcDbLine
 10
141.403944
 20
98.29891
 30
0.0
 11
121.0045
 21
98.29891
 31
0.0
  0
LINE
  5
30
100
AcDbEntity
  8
LAYER_1
 62
     7
100
AcDbLine
 10
195.841276
 20
98.247233
 30
0.0
 11
146.874411
 21
98.247233
 31
0.0
  0
LINE
  5
2F
100
AcDbEntity
  8
LAYER_1
 62
     7
100
AcDbLine
 10
91.571327
 20
104.498014
 30
0.0
 11
71.544126
 21
104.498014
 31
0.0
  0
LINE
  5
2E
100
AcDbEntity
  8
LAYER_1
 62
     7
100
AcDbLine
 10
195.841276
 20
104.498014
 30
0.0
 11
91.571327
 21
104.498014
 31
0.0
  0
LINE
  5
2D
100
AcDbEntity
  8
LAYER_1
 62
     7
100
AcDbLine
 10
43.954768
 20
65.001373
 30
0.0
 11
43.954768
 21
173.538761
 31
0.0
  0
MTEXT
  5
2C
100
AcDbEntity
  8
LAYER_1
 62
     7
100
AcDbMText
 10
92.266547
 20
156.209721
 30
0.0
 40
2.557429
 41
0.0
 71
     1
 72
     2
  1
\W0.50;\fMS Gothic|b0|i0|c128;ボード
  7
KANJISTD
210
0.0
220
0.0
230
1.0
 11
1.000001
 21
0.0
 31
0.0
 73
     1
 44
1.0
  0
MTEXT
  5
2B
100
AcDbEntity
  8
LAYER_1
 62
     7
100
AcDbMText
 10
94.241965
 20
141.434396
 30
0.0
 40
2.557429
 41
0.0
 71
     1
 72
     2
  1
\W0.50;\fMS Gothic|b0|i0|c128;成形緩衝材
  7
KANJISTD
210
0.0
220
0.0
230
1.0
 11
1.000001
 21
0.0
 31
0.0
 73
     1
 44
1.0
  0
ENDSEC
  0
SECTION
  2
OBJECTS
  0
DICTIONARY
  5
19
100
AcDbDictionary
280
     0
281
     1
  3
ACAD_GROUP
350
1A
  3
ACAD_MLINESTYLE
350
1B
  3
ACAD_LAYOUT
350
1E
  3
ACAD_PLOTSETTINGS
350
22
  3
ACAD_PLOTSTYLENAME
350
1F
  3
ACAD_WIPEOUT_VARS
350
23
  0
DICTIONARY
  5
1A
102
{ACAD_REACTORS
330
19
102
}
100
AcDbDictionary
280
     0
281
     1
  0
DICTIONARY
  5
1B
102
{ACAD_REACTORS
330
19
102
}
100
AcDbDictionary
280
     0
281
     1
  3
Standard
350
1C
  0
MLINESTYLE
  5
1C
102
{ACAD_REACTORS
330
1B
102
}
100
AcDbMlineStyle
  2
Standard
 70
     0
  3

 62
     0
 51
90.0
 52
90.0
 71
     2
 49
0.5
 62
   256
  6
BYLAYER
 49
-0.5
 62
   256
  6
BYLAYER
  0
ACDBDICTIONARYWDFLT
  5
1F
102
{ACAD_REACTORS
330
19
102
}
100
AcDbDictionary
281
     1
  3
Normal
350
1D
100
AcDbDictionaryWithDefault
340
1D
  0
ACDBPLACEHOLDER
  5
1D
102
{ACAD_REACTORS
330
1F
102
}
  0
LAYOUT
  5
20
102
{ACAD_REACTORS
330
1E
102
}
100
AcDbPlotSettings
  1

  2

  4

  6

 40
0.0
 41
0.0
 42
0.0
 43
0.0
 44
0.0
 45
0.0
 46
0.0
 47
0.0
 48
0.0
 49
0.0
140
0.0
141
0.0
142
1.0
143
1.0
 70
  1024
 72
     0
 73
     0
 74
     0
  7

 75
     0
147
1.0
148
0.0
149
0.0
100
AcDbLayout
  1
Model
 70
     0
 71
     0
 10
0.0
 20
0.0
 11
0.0
 21
0.0
 12
0.0
 22
0.0
 32
0.0
 14
0.0
 24
0.0
 34
0.0
 15
0.0
 25
0.0
 35
0.0
146
0.0
 13
0.0
 23
0.0
 33
0.0
 16
0.0
 26
0.0
 36
0.0
 17
0.0
 27
0.0
 37
0.0
 76
     0
330
A
331
0
345
0
346
0
  0
LAYOUT
  5
21
102
{ACAD_REACTORS
330
1E
102
}
100
AcDbPlotSettings
  1

  2

  4

  6

 40
0.0
 41
0.0
 42
0.0
 43
0.0
 44
0.0
 45
0.0
 46
0.0
 47
0.0
 48
0.0
 49
0.0
140
0.0
141
0.0
142
1.0
143
1.0
 70
     0
 72
     0
 73
     0
 74
     0
  7

 75
     0
147
1.0
148
0.0
149
0.0
100
AcDbLayout
  1
Layout1
 70
     0
 71
     0
 10
0.0
 20
0.0
 11
0.0
 21
0.0
 12
0.0
 22
0.0
 32
0.0
 14
0.0
 24
0.0
 34
0.0
 15
0.0
 25
0.0
 35
0.0
146
0.0
 13
0.0
 23
0.0
 33
0.0
 16
0.0
 26
0.0
 36
0.0
 17
0.0
 27
0.0
 37
0.0
 76
     0
330
B
331
0
345
0
346
0
  0
DICTIONARY
  5
1E
102
{ACAD_REACTORS
330
19
102
}
100
AcDbDictionary
280
     0
281
     1
  3
Layout1
350
21
  3
Model
350
20
  0
DICTIONARY
  5
22
102
{ACAD_REACTORS
330
19
102
}
100
AcDbDictionary
280
     0
281
     1
  0
WIPEOUTVARIABLES
  5
23
100
AcDbWipeoutVariables
 70
     1
  0
ENDSEC
  0
EOF
