  0
SECTION
  2
HEADER
  9
$ACADVER
  1
AC1015
  9
$ACADMAINTVER
 70
     6
  9
$DWGCODEPAGE
  3
ANSI_932
  9
$INSBASE
 10
0.0
 20
0.0
 30
0.0
  9
$EXTMIN
 10
4.655702
 20
68.993549
 30
1.000000E+20
  9
$EXTMAX
 10
203.905211
 20
239.435859
 30
-1.000000E+20
  9
$LIMMIN
 10
4.655702
 20
68.993549
  9
$LIMMAX
 10
203.905211
 20
239.435859
  9
$ORTHOMODE
 70
     0
  9
$REGENMODE
 70
     1
  9
$FILLMODE
 70
     1
  9
$QTEXTMODE
 70
     0
  9
$MIRRTEXT
 70
     1
  9
$LTSCALE
 40
1.0
  9
$ATTMODE
 70
     1
  9
$TEXTSIZE
 40
0.2
  9
$TRACEWID
 40
0.05
  9
$TEXTSTYLE
  7
Standard
  9
$CLAYER
  8
0
  9
$CELTYPE
  6
Continuous
  9
$CECOLOR
 62
   256
  9
$CELTSCALE
 40
1.0
  9
$DISPSILH
 70
     0
  9
$DIMSCALE
 40
1.0
  9
$DIMASZ
 40
0.18
  9
$DIMEXO
 40
0.0625
  9
$DIMDLI
 40
0.38
  9
$DIMRND
 40
0.0
  9
$DIMDLE
 40
0.0
  9
$DIMEXE
 40
0.18
  9
$DIMTP
 40
0.0
  9
$DIMTM
 40
0.0
  9
$DIMTXT
 40
0.18
  9
$DIMCEN
 40
0.09
  9
$DIMTSZ
 40
0.0
  9
$DIMTOL
 70
     0
  9
$DIMLIM
 70
     0
  9
$DIMTIH
 70
     1
  9
$DIMTOH
 70
     1
  9
$DIMSE1
 70
     0
  9
$DIMSE2
 70
     0
  9
$DIMTAD
 70
     0
  9
$DIMZIN
 70
     0
  9
$DIMBLK
  1

  9
$DIMASO
 70
     1
  9
$DIMSHO
 70
     1
  9
$DIMPOST
  1

  9
$DIMAPOST
  1

  9
$DIMALT
 70
     0
  9
$DIMALTD
 70
     2
  9
$DIMALTF
 40
25.4
  9
$DIMLFAC
 40
1.0
  9
$DIMTOFL
 70
     0
  9
$DIMTVP
 40
0.0
  9
$DIMTIX
 70
     0
  9
$DIMSOXD
 70
     0
  9
$DIMSAH
 70
     0
  9
$DIMBLK1
  1

  9
$DIMBLK2
  1

  9
$DIMSTYLE
  2
Standard
  9
$DIMCLRD
 70
     0
  9
$DIMCLRE
 70
     0
  9
$DIMCLRT
 70
     0
  9
$DIMTFAC
 40
1.0
  9
$DIMGAP
 40
0.09
  9
$DIMJUST
 70
     0
  9
$DIMSD1
 70
     0
  9
$DIMSD2
 70
     0
  9
$DIMTOLJ
 70
     1
  9
$DIMTZIN
 70
     0
  9
$DIMALTZ
 70
     0
  9
$DIMALTTZ
 70
     0
  9
$DIMUPT
 70
     0
  9
$DIMDEC
 70
     4
  9
$DIMTDEC
 70
     4
  9
$DIMALTU
 70
     2
  9
$DIMALTTD
 70
     2
  9
$DIMTXSTY
  7
Standard
  9
$DIMAUNIT
 70
     0
  9
$DIMADEC
 70
     0
  9
$DIMALTRND
 40
0.0
  9
$DIMAZIN
 70
     0
  9
$DIMDSEP
 70
     0
  9
$DIMATFIT
 70
     3
  9
$DIMFRAC
 70
     0
  9
$DIMLDRBLK
  1

  9
$DIMLUNIT
 70
     2
  9
$DIMLWD
 70
     0
  9
$DIMLWE
 70
     0
  9
$DIMTMOVE
 70
     0
  9
$LUNITS
 70
     2
  9
$LUPREC
 70
     4
  9
$SKETCHINC
 40
0.1
  9
$FILLETRAD
 40
0.0
  9
$AUNITS
 70
     0
  9
$AUPREC
 70
     0
  9
$MENU
  1
acad
  9
$ELEVATION
 40
0.0
  9
$PELEVATION
 40
0.0
  9
$THICKNESS
 40
0.0
  9
$LIMCHECK
 70
     0
  9
$CHAMFERA
 40
0.0
  9
$CHAMFERB
 40
0.0
  9
$CHAMFERC
 40
0.0
  9
$CHAMFERD
 40
0.0
  9
$SKPOLY
 70
     0
  9
$TDCREATE
 40
0.000000000
  9
$TDUCREATE
 40
0.000000000
  9
$TDUPDATE
 40
0.000000000
  9
$TDUUPDATE
 40
0.000000000
  9
$TDINDWG
 40
0.0000000000
  9
$TDUSRTIMER
 40
0.0000000000
  9
$USRTIMER
 70
     1
  9
$ANGBASE
 50
0.0
  9
$ANGDIR
 70
     0
  9
$PDMODE
 70
     0
  9
$PDSIZE
 40
0.0
  9
$PLINEWID
 40
0.0
  9
$SPLFRAME
 70
     0
  9
$SPLINETYPE
 70
     6
  9
$SPLINESEGS
 70
     8
  9
$HANDSEED
  5
258
  9
$SURFTAB1
 70
     6
  9
$SURFTAB2
 70
     6
  9
$SURFTYPE
 70
     6
  9
$SURFU
 70
     6
  9
$SURFV
 70
     6
  9
$UCSBASE
  2

  9
$UCSNAME
  2

  9
$UCSORG
 10
0.0
 20
0.0
 30
0.0
  9
$UCSXDIR
 10
1.0
 20
0.0
 30
0.0
  9
$UCSYDIR
 10
0.0
 20
1.0
 30
0.0
  9
$UCSORTHOREF
  2

  9
$UCSORTHOVIEW
 70
     0
  9
$UCSORGTOP
 10
0.0
 20
0.0
 30
0.0
  9
$UCSORGBOTTOM
 10
0.0
 20
0.0
 30
0.0
  9
$UCSORGLEFT
 10
0.0
 20
0.0
 30
0.0
  9
$UCSORGRIGHT
 10
0.0
 20
0.0
 30
0.0
  9
$UCSORGFRONT
 10
0.0
 20
0.0
 30
0.0
  9
$UCSORGBACK
 10
0.0
 20
0.0
 30
0.0
  9
$PUCSBASE
  2

  9
$PUCSNAME
  2

  9
$PUCSORG
 10
0.0
 20
0.0
 30
0.0
  9
$PUCSXDIR
 10
1.0
 20
0.0
 30
0.0
  9
$PUCSYDIR
 10
0.0
 20
1.0
 30
0.0
  9
$PUCSORTHOREF
  2

  9
$PUCSORTHOVIEW
 70
     0
  9
$PUCSORGTOP
 10
0.0
 20
0.0
 30
0.0
  9
$PUCSORGBOTTOM
 10
0.0
 20
0.0
 30
0.0
  9
$PUCSORGLEFT
 10
0.0
 20
0.0
 30
0.0
  9
$PUCSORGRIGHT
 10
0.0
 20
0.0
 30
0.0
  9
$PUCSORGFRONT
 10
0.0
 20
0.0
 30
0.0
  9
$PUCSORGBACK
 10
0.0
 20
0.0
 30
0.0
  9
$USERI1
 70
     0
  9
$USERI2
 70
     0
  9
$USERI3
 70
     0
  9
$USERI4
 70
     0
  9
$USERI5
 70
     0
  9
$USERR1
 40
0.0
  9
$USERR2
 40
0.0
  9
$USERR3
 40
0.0
  9
$USERR4
 40
0.0
  9
$USERR5
 40
0.0
  9
$WORLDVIEW
 70
     1
  9
$SHADEDGE
 70
     3
  9
$SHADEDIF
 70
    70
  9
$TILEMODE
 70
     1
  9
$MAXACTVP
 70
    16
  9
$PINSBASE
 10
0.0
 20
0.0
 30
0.0
  9
$PLIMCHECK
 70
     0
  9
$PEXTMIN
 10
1.000000E+20
 20
1.000000E+20
 30
1.000000E+20
  9
$PEXTMAX
 10
-1.000000E+20
 20
-1.000000E+20
 30
-1.000000E+20
  9
$PLIMMIN
 10
0.0
 20
0.0
  9
$PLIMMAX
 10
12.0
 20
9.0
  9
$UNITMODE
 70
     0
  9
$VISRETAIN
 70
     0
  9
$PLINEGEN
 70
     1
  9
$PSLTSCALE
 70
     0
  9
$TREEDEPTH
 70
  3020
  9
$CMLSTYLE
  2
Standard
  9
$CMLJUST
 70
     0
  9
$CMLSCALE
 40
1.0
  9
$PROXYGRAPHICS
 70
     0
  9
$MEASUREMENT
 70
     0
  9
$CELWEIGHT
370
     0
  9
$ENDCAPS
280
     0
  9
$JOINSTYLE
280
     0
  9
$LWDISPLAY
290
     0
  9
$INSUNITS
 70
     0
  9
$HYPERLINKBASE
  1

  9
$XEDIT
290
     1
  9
$CEPSNTYPE
380
     0
  9
$PSTYLEMODE
290
     1
  9
$FINGERPRINTGUID
  2

  9
$VERSIONGUID
  2

  9
$EXTNAMES
290
     1
  9
$PSVPSCALE
 40
0.0
  0
ENDSEC
  0
SECTION
  2
CLASSES
  0
CLASS
  1
LWPOLYLINE
  2
AcDbPolyline
  3
"AutoCAD"
 90
        0
280
     0
281
     1
  0
CLASS
  1
IMAGE
  2
AcDbRasterImage
  3
ISM
 90
      127
280
     0
281
     1
  0
CLASS
  1
OLE2FRAME
  2
AcDbOle2Frame
  3
""
 90
        0
280
     0
281
     1
  0
CLASS
  1
HATCH
  2
AcDbHatch
  3
"ACAD_SEDONA"
 90
        0
280
     0
281
     1
  0
CLASS
  1
DICTIONARYVAR
  2
AcDbDictionaryVar
  3
"AutoCAD"
 90
        0
280
     0
281
     0
  0
CLASS
  1
RASTERVARIABLES
  2
AcDbRasterVariables
  3
ISM
 90
        0
280
     0
281
     0
  0
CLASS
  1
IMAGEDEF
  2
AcDbRasterImageDef
  3
ISM
 90
        0
280
     0
281
     0
  0
CLASS
  1
IMAGEDEF_REACTOR
  2
AcDbRasterImageDefReactor
  3
ISM
 90
        1
280
     0
281
     0
  0
CLASS
  1
IDBUFFER
  2
AcDbIdBuffer
  3
"Acad"
 90
        0
280
     0
281
     0
  0
CLASS
  1
SPATIAL_FILTER
  2
AcDbSpatialFilter
  3
"Acad"
 90
        0
280
     0
281
     0
  0
CLASS
  1
XRECORD
  2
AcDbXrecord
  3
"<Built In>"
 90
        0
280
     0
281
     0
  0
CLASS
  1
SORTENTSTABLE
  2
AcDbSortentsTable
  3
"AutoCAD"
 90
        0
280
     0
281
     0
  0
CLASS
  1
LAYER_INDEX
  2
AcDbLayerIndex
  3
"Acad"
 90
        0
280
     0
281
     0
  0
CLASS
  1
SPATIAL_INDEX
  2
AcDbSpatialIndex
  3
"Acad"
 90
        0
280
     0
281
     0
  0
CLASS
  1
OBJECT_PTR
  2
CAseDLPNTableRecord
  3
"ASE-LPNTableRecord"
 90
        1
280
     0
281
     0
  0
CLASS
  1
LAYOUT
  2
AcDbLayout
  3
"AutoCAD 2000"
 90
        1
280
     0
281
     0
  0
CLASS
  1
PLOTSETTINGS
  2
AcDbPlotSettings
  3
"AutoCAD 2000"
 90
        1
280
     0
281
     0
  0
CLASS
  1
ACDBDICTIONARYWDFLT
  2
AcDbDictionaryWithDefault
  3
"AutoCAD 2000"
 90
        1
280
     0
281
     0
  0
CLASS
  1
ACDBPLACEHOLDER
  2
AcDbPlaceHolder
  3
"AutoCAD 2000"
 90
        1
280
     0
281
     0
  0
CLASS
  1
VBA_PROJECT
  2
AcDbVbaProject
  3
"acadvba"
 90
        1
280
     0
281
     0
  0
CLASS
  1
WIPEOUT
  2
AcDbWipeout
  3
WipeOut|AutoCAD Express Tool|expresstools@autodesk.com
 90
      127
280
     0
281
     1
  0
CLASS
  1
WIPEOUTVARIABLES
  2
AcDbWipeoutVariables
  3
WipeOut|AutoCAD Express Tool|expresstools@autodesk.com
 90
        0
280
     0
281
     0
  0
CLASS
  1
RTEXT
  2
RText
  3
RText|AutoCAD Express Tool|expresstools@autodesk.com
 90
        0
280
     0
281
     1
  0
CLASS
  1
ARCALIGNEDTEXT
  2
AcDbArcAlignedText
  3
ATEXT|AutoCAD Express Tool|expresstools@autodesk.com
 90
        0
280
     0
281
     1
  0
ENDSEC
  0
SECTION
  2
TABLES
  0
TABLE
  2
VPORT
  5
7
100
AcDbSymbolTable
 70
     1
  0
VPORT
  5
15
100
AcDbSymbolTableRecord
100
AcDbViewportTableRecord
  2
*ACTIVE
 70
     0
 10
0.0
 20
0.0
 11
1.0
 21
1.0
 12
6.591288
 22
4.579184
 13
0.0
 23
0.0
 14
1.0
 24
1.0
 15
0.0
 25
0.0
 16
0.0
 26
0.0
 36
1.0
 17
0.0
 27
0.0
 37
0.0
 40
9.158369
 41
0.688564
 42
50.0
 43
0.0
 44
0.0
 50
0.0
 51
0.0
 71
     0
 72
   100
 73
     1
 74
     1
 75
     0
 76
     0
 77
     0
 78
     0
281
     0
 65
     0
110
0.0
120
0.0
130
0.0
111
1.0
121
0.0
131
0.0
112
0.0
122
1.0
132
0.0
345
0
346
0
 79
     0
146
0.0
  0
ENDTAB
  0
TABLE
  2
LTYPE
  5
4
100
AcDbSymbolTable
 70
     3
  0
LTYPE
  5
11
100
AcDbSymbolTableRecord
100
AcDbLinetypeTableRecord
  2
ByBlock
 70
    64
  3

 72
    65
 73
     0
 40
0.0
  0
LTYPE
  5
12
100
AcDbSymbolTableRecord
100
AcDbLinetypeTableRecord
  2
ByLayer
 70
    64
  3

 72
    65
 73
     0
 40
0.0
  0
LTYPE
  5
13
100
AcDbSymbolTableRecord
100
AcDbLinetypeTableRecord
  2
Continuous
 70
    64
  3
Solid line
 72
    65
 73
     0
 40
0.0
  0
ENDTAB
  0
TABLE
  2
LAYER
  5
2
100
AcDbSymbolTable
 70
     4
  0
LAYER
  5
14
100
AcDbSymbolTableRecord
100
AcDbLayerTableRecord
  2
0
 70
     0
 62
     7
  6
Continuous
290
     1
370
    -3
390
1D
  0
LAYER
  5
28
100
AcDbSymbolTableRecord
100
AcDbLayerTableRecord
  2
レイヤー_1
 70
     0
 62
   160
  6
Continuous
290
     1
370
    -3
390
1F
  0
LAYER
  5
49
100
AcDbSymbolTableRecord
100
AcDbLayerTableRecord
  2
0
 70
     0
 62
     7
  6
Continuous
290
     1
370
    -3
390
1F
  0
LAYER
  5
257
100
AcDbSymbolTableRecord
100
AcDbLayerTableRecord
  2
LAYER_1
 70
     0
 62
     7
  6
Continuous
290
     1
370
    -3
390
1F
  0
ENDTAB
  0
TABLE
  2
STYLE
  5
3
100
AcDbSymbolTable
 70
     5
  0
STYLE
  5
17
100
AcDbSymbolTableRecord
100
AcDbTextStyleTableRecord
  2
Standard
 70
     0
 40
0.0
 41
1.0
 50
0.0
 71
     0
 42
0.0
  3
txt
  4

  0
STYLE
  5
24
100
AcDbSymbolTableRecord
100
AcDbTextStyleTableRecord
  2
STD
 70
     0
 40
0.0
 41
1.0
 50
0.0
 71
     0
 42
0.0
  3
txt
  4

  0
STYLE
  5
25
100
AcDbSymbolTableRecord
100
AcDbTextStyleTableRecord
  2
TATESTD
 70
     4
 40
0.0
 41
1.0
 50
0.0
 71
     0
 42
0.0
  3
txt
  4

  0
STYLE
  5
26
100
AcDbSymbolTableRecord
100
AcDbTextStyleTableRecord
  2
KANJISTD
 70
     0
 40
0.0
 41
1.0
 50
0.0
 71
     0
 42
0.0
  3
txt
  4
extfont
  0
STYLE
  5
27
100
AcDbSymbolTableRecord
100
AcDbTextStyleTableRecord
  2
KANJITATE
 70
     4
 40
0.0
 41
1.0
 50
0.0
 71
     0
 42
0.0
  3
txt
  4
extfont
  0
ENDTAB
  0
TABLE
  2
VIEW
  5
5
100
AcDbSymbolTable
 70
     0
  0
ENDTAB
  0
TABLE
  2
UCS
  5
6
100
AcDbSymbolTable
 70
     0
  0
ENDTAB
  0
TABLE
  2
APPID
  5
8
100
AcDbSymbolTable
 70
     1
  0
APPID
  5
16
100
AcDbSymbolTableRecord
100
AcDbRegAppTableRecord
  2
ACAD
 70
     0
  0
ENDTAB
  0
TABLE
  2
DIMSTYLE
  5
9
100
AcDbSymbolTable
 70
     1
100
AcDbDimStyleTable
 71
     0
  0
DIMSTYLE
105
18
100
AcDbSymbolTableRecord
100
AcDbDimStyleTableRecord
  2
Standard
 70
     0
  3

  4

 40
1.0
 41
0.18
 42
0.0625
 43
0.38
 44
0.18
 45
0.0
 46
0.0
 47
0.0
 48
0.0
 71
     0
 72
     0
 73
     1
 74
     1
 75
     0
 76
     0
 77
     0
 78
     0
 79
     0
140
0.18
141
0.09
142
0.0
143
25.4
144
1.0
145
0.0
146
1.0
147
0.09
148
0.0
170
     0
171
     2
172
     0
173
     0
174
     0
175
     0
176
     0
177
     0
178
     0
179
     0
271
     4
272
     4
273
     2
274
     2
275
     0
276
     0
277
     2
278
    46
279
     0
280
     0
281
     0
282
     0
283
     1
284
     0
285
     0
286
     0
288
     0
340
17
341
0
342
0
343
0
344
0
371
    -2
372
    -2
  0
ENDTAB
  0
TABLE
  2
BLOCK_RECORD
  5
1
100
AcDbSymbolTable
 70
     1
  0
BLOCK_RECORD
  5
A
100
AcDbSymbolTableRecord
100
AcDbBlockTableRecord
  2
*MODEL_SPACE
340
20
  0
BLOCK_RECORD
  5
B
100
AcDbSymbolTableRecord
100
AcDbBlockTableRecord
  2
*PAPER_SPACE
340
21
  0
BLOCK_RECORD
  5
29
100
AcDbSymbolTableRecord
100
AcDbBlockTableRecord
  2
AI9-BLK1
340
0
  0
ENDTAB
  0
ENDSEC
  0
SECTION
  2
BLOCKS
  0
BLOCK
  5
D
100
AcDbEntity
  8
0
100
AcDbBlockBegin
  2
*MODEL_SPACE
 70
     0
 10
0.0
 20
0.0
 30
0.0
  3
*MODEL_SPACE
  1

  0
ENDBLK
  5
E
100
AcDbEntity
  8
0
100
AcDbBlockEnd
  0
BLOCK
  5
F
100
AcDbEntity
 67
     1
  8
0
100
AcDbBlockBegin
  2
*PAPER_SPACE
 70
     0
 10
0.0
 20
0.0
 30
0.0
  3
*PAPER_SPACE
  1

  0
ENDBLK
  5
10
100
AcDbEntity
 67
     1
  8
0
100
AcDbBlockEnd
  0
BLOCK
  5
2B
100
AcDbEntity
  8
レイヤー_1
 62
     7
100
AcDbBlockBegin
  2
AI9-BLK1
 70
     0
 10
0.0
 20
0.0
 30
0.0
  3
AI9-BLK1
  1

  0
LINE
  5
47
100
AcDbEntity
  8
レイヤー_1
 62
     7
100
AcDbLine
 10
-0.173633
 20
-4.236434
 30
0.0
 11
-1.669838
 21
-5.732639
 31
0.0
  0
LINE
  5
46
100
AcDbEntity
  8
レイヤー_1
 62
     7
100
AcDbLine
 10
-1.111732
 20
-3.326929
 30
0.0
 11
-2.59364
 21
-4.807631
 31
0.0
  0
LINE
  5
45
100
AcDbEntity
  8
レイヤー_1
 62
     7
100
AcDbLine
 10
-2.021238
 20
-2.388829
 30
0.0
 11
-3.545692
 21
-3.913628
 31
0.0
  0
LINE
  5
44
100
AcDbEntity
  8
レイヤー_1
 62
     7
100
AcDbLine
 10
-2.930743
 20
-1.451074
 30
0.0
 11
-4.441245
 21
-2.961404
 31
0.0
  0
LINE
  5
43
100
AcDbEntity
  8
レイヤー_1
 62
     7
100
AcDbLine
 10
-3.017042
 20
0.268717
 30
0.0
 11
-5.011925
 21
-1.725993
 31
0.0
  0
LINE
  5
42
100
AcDbEntity
  8
レイヤー_1
 62
     7
100
AcDbLine
 10
-3.017042
 20
2.116322
 30
0.0
 11
-5.066013
 21
0.068557
 31
0.0
  0
LINE
  5
41
100
AcDbEntity
  8
レイヤー_1
 62
     7
100
AcDbLine
 10
-3.017042
 20
3.963927
 30
0.0
 11
-5.066013
 21
1.916162
 31
0.0
  0
LINE
  5
40
100
AcDbEntity
  8
レイヤー_1
 62
     7
100
AcDbLine
 10
-3.017042
 20
5.811532
 30
0.0
 11
-5.066013
 21
3.763767
 31
0.0
  0
LINE
  5
3F
100
AcDbEntity
  8
レイヤー_1
 62
     7
100
AcDbLine
 10
2.855467
 20
-4.779036
 30
0.0
 11
0.847493
 21
-6.786838
 31
0.0
  0
LINE
  5
3E
100
AcDbEntity
  8
レイヤー_1
 62
     7
100
AcDbLine
 10
1.00769
 20
-4.779036
 30
0.0
 11
-0.746897
 21
-6.529489
 31
0.0
  0
LINE
  5
3D
100
AcDbEntity
  8
レイヤー_1
 62
     7
100
AcDbLine
 10
4.753026
 20
-4.687397
 30
0.0
 11
2.609488
 21
-6.830591
 31
0.0
  0
LINE
  5
3C
100
AcDbEntity
  8
レイヤー_1
 62
     7
100
AcDbLine
 10
-5.085478
 20
-0.587733
 30
0.0
 11
1.154796
 21
-6.828179
 31
0.0
  0
LINE
  5
3B
100
AcDbEntity
  8
レイヤー_1
 62
     7
100
AcDbLine
 10
-5.085478
 20
1.259871
 30
0.0
 11
-3.091801
 21
-0.733805
 31
0.0
  0
LINE
  5
3A
100
AcDbEntity
  8
レイヤー_1
 62
     7
100
AcDbLine
 10
1.147217
 20
-4.795917
 30
0.0
 11
3.140721
 21
-6.789594
 31
0.0
  0
LINE
  5
39
100
AcDbEntity
  8
レイヤー_1
 62
     7
100
AcDbLine
 10
2.731444
 20
-4.710479
 30
0.0
 11
4.825373
 21
-6.803719
 31
0.0
  0
LINE
  5
38
100
AcDbEntity
  8
レイヤー_1
 62
     7
100
AcDbLine
 10
-5.085478
 20
4.954736
 30
0.0
 11
-2.994994
 21
2.863219
 31
0.0
  0
LINE
  5
37
100
AcDbEntity
  8
レイヤー_1
 62
     7
100
AcDbLine
 10
-5.085478
 20
3.107132
 30
0.0
 11
-2.994994
 21
1.015614
 31
0.0
  0
LINE
  5
36
100
AcDbEntity
  8
レイヤー_1
 62
     7
100
AcDbLine
 10
-5.085478
 20
6.802341
 30
0.0
 11
-2.970534
 21
4.686019
 31
0.0
  0
POLYLINE
  5
2C
100
AcDbEntity
  8
レイヤー_1
 62
     7
100
AcDb2dPolyline
 66
     1
 10
0.0
 20
0.0
 30
0.0
 70
     1
  0
VERTEX
  5
2D
100
AcDbEntity
  8
レイヤー_1
 62
     7
100
AcDbVertex
100
AcDb2dVertex
 10
-0.548459
 20
-6.823012
 30
0.0
  0
VERTEX
  5
2E
100
AcDbEntity
  8
レイヤー_1
 62
     7
100
AcDbVertex
100
AcDb2dVertex
 10
5.111316
 20
-6.823012
 30
0.0
  0
VERTEX
  5
2F
100
AcDbEntity
  8
レイヤー_1
 62
     7
100
AcDbVertex
100
AcDb2dVertex
 10
5.111316
 20
-4.710479
 30
0.0
  0
VERTEX
  5
30
100
AcDbEntity
  8
レイヤー_1
 62
     7
100
AcDbVertex
100
AcDb2dVertex
 10
0.341753
 20
-4.722192
 30
0.0
  0
VERTEX
  5
31
100
AcDbEntity
  8
レイヤー_1
 62
     7
100
AcDbVertex
100
AcDb2dVertex
 10
-2.997578
 20
-1.480358
 30
0.0
  0
VERTEX
  5
32
100
AcDbEntity
  8
レイヤー_1
 62
     7
100
AcDbVertex
100
AcDb2dVertex
 10
-2.998783
 20
6.823012
 30
0.0
  0
VERTEX
  5
33
100
AcDbEntity
  8
レイヤー_1
 62
     7
100
AcDbVertex
100
AcDb2dVertex
 10
-5.111316
 20
6.823012
 30
0.0
  0
VERTEX
  5
34
100
AcDbEntity
  8
レイヤー_1
 62
     7
100
AcDbVertex
100
AcDb2dVertex
 10
-5.103564
 20
-2.370226
 30
0.0
  0
SEQEND
  5
35
100
AcDbEntity
  8
レイヤー_1
 62
     7
  0
ENDBLK
  5
48
100
AcDbEntity
  8
レイヤー_1
100
AcDbBlockEnd
  0
ENDSEC
  0
SECTION
  2
ENTITIES
  0
LINE
  5
256
100
AcDbEntity
  8
0
 62
     7
100
AcDbLine
 10
80.596975
 20
69.286038
 30
0.0
 11
38.818302
 21
111.064366
 31
0.0
  0
LINE
  5
255
100
AcDbEntity
  8
0
 62
     7
100
AcDbLine
 10
79.263896
 20
69.304297
 30
0.0
 11
38.818302
 21
109.749718
 31
0.0
  0
LINE
  5
254
100
AcDbEntity
  8
0
 62
     7
100
AcDbLine
 10
77.910834
 20
69.342537
 30
0.0
 11
38.818302
 21
108.435069
 31
0.0
  0
LINE
  5
253
100
AcDbEntity
  8
0
 62
     7
100
AcDbLine
 10
54.192902
 20
69.395247
 30
0.0
 11
38.818302
 21
84.769675
 31
0.0
  0
LINE
  5
252
100
AcDbEntity
  8
0
 62
     7
100
AcDbLine
 10
52.897891
 20
69.37561
 30
0.0
 11
38.818302
 21
83.455027
 31
0.0
  0
LINE
  5
251
100
AcDbEntity
  8
0
 62
     7
100
AcDbLine
 10
51.544657
 20
69.413506
 30
0.0
 11
38.818302
 21
82.140378
 31
0.0
  0
LINE
  5
250
100
AcDbEntity
  8
0
 62
     7
100
AcDbLine
 10
65.008091
 20
111.169442
 30
0.0
 11
38.818302
 21
137.359058
 31
0.0
  0
LINE
  5
24F
100
AcDbEntity
  8
0
 62
     7
100
AcDbLine
 10
65.017392
 20
109.845492
 30
0.0
 11
38.818302
 21
136.044409
 31
0.0
  0
LINE
  5
24E
100
AcDbEntity
  8
0
 62
     7
100
AcDbLine
 10
65.055805
 20
108.491569
 30
0.0
 11
38.818302
 21
134.729761
 31
0.0
  0
LINE
  5
24D
100
AcDbEntity
  8
0
 62
     7
100
AcDbLine
 10
65.008091
 20
137.464133
 30
0.0
 11
38.818302
 21
163.653749
 31
0.0
  0
LINE
  5
24C
100
AcDbEntity
  8
0
 62
     7
100
AcDbLine
 10
65.017392
 20
136.140183
 30
0.0
 11
38.818302
 21
162.3391
 31
0.0
  0
LINE
  5
24B
100
AcDbEntity
  8
0
 62
     7
100
AcDbLine
 10
65.055805
 20
134.787294
 30
0.0
 11
38.818302
 21
161.02428
 31
0.0
  0
LINE
  5
24A
100
AcDbEntity
  8
0
 62
     7
100
AcDbLine
 10
65.008091
 20
163.758997
 30
0.0
 11
38.818302
 21
189.94844
 31
0.0
  0
LINE
  5
249
100
AcDbEntity
  8
0
 62
     7
100
AcDbLine
 10
65.017392
 20
162.435046
 30
0.0
 11
38.818302
 21
188.633792
 31
0.0
  0
LINE
  5
248
100
AcDbEntity
  8
0
 62
     7
100
AcDbLine
 10
65.055805
 20
161.082157
 30
0.0
 11
38.818302
 21
187.318971
 31
0.0
  0
LINE
  5
247
100
AcDbEntity
  8
0
 62
     7
100
AcDbLine
 10
64.936777
 20
156.725145
 30
0.0
 11
27.880641
 21
156.725145
 31
0.0
  0
POLYLINE
  5
235
100
AcDbEntity
  8
0
 62
     7
100
AcDb2dPolyline
 66
     1
 10
0.0
 20
0.0
 30
0.0
  0
VERTEX
  5
236
100
AcDbEntity
  8
0
 62
     7
100
AcDbVertex
100
AcDb2dVertex
 10
38.77765
 20
70.011919
 30
0.0
  0
VERTEX
  5
237
100
AcDbEntity
  8
0
 62
     7
100
AcDbVertex
100
AcDb2dVertex
 10
38.774033
 20
205.416402
 30
0.0
  0
VERTEX
  5
238
100
AcDbEntity
  8
0
 62
     7
100
AcDbVertex
100
AcDb2dVertex
 10
44.570406
 20
207.346345
 30
0.0
  0
VERTEX
  5
239
100
AcDbEntity
  8
0
 62
     7
100
AcDbVertex
100
AcDb2dVertex
 10
44.573162
 20
210.780416
 30
0.0
  0
VERTEX
  5
23A
100
AcDbEntity
  8
0
 62
     7
100
AcDbVertex
100
AcDb2dVertex
 10
74.526889
 20
207.898593
 30
0.0
  0
VERTEX
  5
23B
100
AcDbEntity
  8
0
 62
     7
100
AcDbVertex
100
AcDb2dVertex
 10
76.90969
 20
205.571431
 30
0.0
  0
VERTEX
  5
23C
100
AcDbEntity
  8
0
 62
     7
100
AcDbVertex
100
AcDb2dVertex
 10
76.901938
 20
187.806797
 30
0.0
  0
VERTEX
  5
23D
100
AcDbEntity
  8
0
 62
     7
100
AcDbVertex
100
AcDb2dVertex
 10
74.753232
 20
185.634836
 30
0.0
  0
VERTEX
  5
23E
100
AcDbEntity
  8
0
 62
     7
100
AcDbVertex
100
AcDb2dVertex
 10
72.493422
 20
185.626912
 30
0.0
  0
VERTEX
  5
23F
100
AcDbEntity
  8
0
 62
     7
100
AcDbVertex
100
AcDb2dVertex
 10
72.493422
 20
188.947984
 30
0.0
  0
VERTEX
  5
240
100
AcDbEntity
  8
0
 62
     7
100
AcDbVertex
100
AcDb2dVertex
 10
69.864125
 20
188.947984
 30
0.0
  0
VERTEX
  5
241
100
AcDbEntity
  8
0
 62
     7
100
AcDbVertex
100
AcDb2dVertex
 10
69.206801
 20
185.679622
 30
0.0
  0
VERTEX
  5
242
100
AcDbEntity
  8
0
 62
     7
100
AcDbVertex
100
AcDb2dVertex
 10
65.088534
 20
185.672904
 30
0.0
  0
VERTEX
  5
243
100
AcDbEntity
  8
0
 62
     7
100
AcDbVertex
100
AcDb2dVertex
 10
65.074753
 20
149.682164
 30
0.0
  0
VERTEX
  5
244
100
AcDbEntity
  8
0
 62
     7
100
AcDbVertex
100
AcDb2dVertex
 10
65.062006
 20
93.541577
 30
0.0
  0
VERTEX
  5
245
100
AcDbEntity
  8
0
 62
     7
100
AcDbVertex
100
AcDb2dVertex
 10
183.372786
 20
93.541577
 30
0.0
  0
SEQEND
  5
246
100
AcDbEntity
  8
0
 62
     7
  0
MTEXT
  5
234
100
AcDbEntity
  8
0
 62
     7
100
AcDbMText
 10
52.631757
 20
173.383898
 30
0.0
 40
2.602419
 41
0.0
 71
     1
 72
     2
  1
\W0.50;\fMS Gothic|b0|i0|c128;
  7
STD
210
0.0
220
0.0
230
1.0
 11
1.000001
 21
0.0
 31
0.0
 73
     1
 44
1.0
  0
MTEXT
  5
233
100
AcDbEntity
  8
0
 62
     7
100
AcDbMText
 10
52.631757
 20
177.610169
 30
0.0
 40
2.602419
 41
0.0
 71
     1
 72
     2
  1
\W0.50;\fMS Gothic|b0|i0|c128;押え金物
  7
KANJISTD
210
0.0
220
0.0
230
1.0
 11
1.000001
 21
0.0
 31
0.0
 73
     1
 44
1.0
  0
MTEXT
  5
232
100
AcDbEntity
  8
0
 62
     7
100
AcDbMText
 10
9.25077
 20
236.78829
 30
0.0
 40
5.204837
 41
0.0
 71
     1
 72
     2
  1
\W0.50;\fMS Gothic|b0|i0|c128;■乾式保護工法標準納まり詳細図
  7
KANJISTD
210
0.0
220
0.0
230
1.0
 11
1.000001
 21
0.0
 31
0.0
 73
     1
 44
1.0
  0
POLYLINE
  5
22C
100
AcDbEntity
  8
0
 62
     7
100
AcDb2dPolyline
 66
     1
 10
0.0
 20
0.0
 30
0.0
 70
     1
  0
VERTEX
  5
22D
100
AcDbEntity
  8
0
 62
     7
100
AcDbVertex
100
AcDb2dVertex
 10
112.313902
 20
228.626699
 30
0.0
  0
VERTEX
  5
22E
100
AcDbEntity
  8
0
 62
     7
100
AcDbVertex
100
AcDb2dVertex
 10
112.313902
 20
239.070851
 30
0.0
  0
VERTEX
  5
22F
100
AcDbEntity
  8
0
 62
     7
100
AcDbVertex
100
AcDb2dVertex
 10
5.02071
 20
239.070851
 30
0.0
  0
VERTEX
  5
230
100
AcDbEntity
  8
0
 62
     7
100
AcDbVertex
100
AcDb2dVertex
 10
5.02071
 20
228.626699
 30
0.0
  0
SEQEND
  5
231
100
AcDbEntity
  8
0
 62
     7
  0
MTEXT
  5
22B
100
AcDbEntity
  8
0
 62
     7
100
AcDbMText
 10
14.623052
 20
224.331773
 30
0.0
 40
4.4613
 41
0.0
 71
     1
 72
     2
  1
\W0.50;\fMS Gothic|b0|i0|c128;●水切りタイプ　ホルダー一体化方式　
  7
KANJISTD
210
0.0
220
0.0
230
1.0
 11
1.000001
 21
0.0
 31
0.0
 73
     1
 44
1.0
  0
POLYLINE
  5
225
100
AcDbEntity
  8
0
 62
     7
100
AcDb2dPolyline
 66
     1
 10
0.0
 20
0.0
 30
0.0
  0
VERTEX
  5
226
100
AcDbEntity
  8
0
 62
     7
100
AcDbVertex
100
AcDb2dVertex
 10
63.826078
 20
185.762305
 30
0.0
  0
VERTEX
  5
227
100
AcDbEntity
  8
0
 62
     7
100
AcDbVertex
100
AcDb2dVertex
 10
22.836849
 20
185.762305
 30
0.0
  0
VERTEX
  5
228
100
AcDbEntity
  8
0
 62
     7
100
AcDbVertex
100
AcDb2dVertex
 10
22.836849
 20
93.830965
 30
0.0
  0
VERTEX
  5
229
100
AcDbEntity
  8
0
 62
     7
100
AcDbVertex
100
AcDb2dVertex
 10
62.492654
 20
93.830965
 30
0.0
  0
SEQEND
  5
22A
100
AcDbEntity
  8
0
 62
     7
  0
LINE
  5
224
100
AcDbEntity
  8
0
 62
     7
100
AcDbLine
 10
41.559565
 20
70.011919
 30
0.0
 11
41.559565
 21
206.36432
 31
0.0
  0
POLYLINE
  5
21F
100
AcDbEntity
  8
0
 62
     7
100
AcDb2dPolyline
 66
     1
 10
0.0
 20
0.0
 30
0.0
  0
VERTEX
  5
220
100
AcDbEntity
  8
0
 62
     7
100
AcDbVertex
100
AcDb2dVertex
 10
23.347068
 20
183.725909
 30
0.0
  0
VERTEX
  5
221
100
AcDbEntity
  8
0
 62
     7
100
AcDbVertex
100
AcDb2dVertex
 10
22.836849
 20
185.630874
 30
0.0
  0
VERTEX
  5
222
100
AcDbEntity
  8
0
 62
     7
100
AcDbVertex
100
AcDb2dVertex
 10
22.326458
 20
183.725909
 30
0.0
  0
SEQEND
  5
223
100
AcDbEntity
  8
0
 62
     7
  0
POLYLINE
  5
21A
100
AcDbEntity
  8
0
 62
     7
100
AcDb2dPolyline
 66
     1
 10
0.0
 20
0.0
 30
0.0
  0
VERTEX
  5
21B
100
AcDbEntity
  8
0
 62
     7
100
AcDbVertex
100
AcDb2dVertex
 10
22.326286
 20
95.735758
 30
0.0
  0
VERTEX
  5
21C
100
AcDbEntity
  8
0
 62
     7
100
AcDbVertex
100
AcDb2dVertex
 10
22.836849
 20
93.830965
 30
0.0
  0
VERTEX
  5
21D
100
AcDbEntity
  8
0
 62
     7
100
AcDbVertex
100
AcDb2dVertex
 10
23.347068
 20
95.735758
 30
0.0
  0
SEQEND
  5
21E
100
AcDbEntity
  8
0
 62
     7
  0
MTEXT
  5
219
100
AcDbEntity
  8
0
 62
     7
100
AcDbMText
 10
5.443768
 20
72.679795
 30
0.0
 40
2.602419
 41
0.0
 71
     1
 72
     2
  1
\W0.50;\fMS Gothic|b0|i0|c128;(数字)は、参考寸法。
  7
KANJISTD
210
0.0
220
0.0
230
1.0
 11
1.000001
 21
0.0
 31
0.0
 73
     1
 44
1.0
  0
MTEXT
  5
218
100
AcDbEntity
  8
0
 62
     7
100
AcDbMText
 10
19.480643
 20
129.435338
 30
0.0
 40
2.602419
 41
0.0
 71
     1
 72
     2
  1
\W0.50;\fMS Gothic|b0|i0|c128;水上400以上
  7
KANJISTD
210
0.0
220
0.0
230
1.0
 11
0.0
 21
1.0
 31
0.0
 73
     1
 44
1.0
  0
MTEXT
  5
217
100
AcDbEntity
  8
0
 62
     7
100
AcDbMText
 10
30.422605
 20
159.94682
 30
0.0
 40
2.602419
 41
0.0
 71
     1
 72
     2
  1
\W0.50;\fMS Gothic|b0|i0|c128;(20)
  7
STD
210
0.0
220
0.0
230
1.0
 11
1.000001
 21
0.0
 31
0.0
 73
     1
 44
1.0
  0
POLYLINE
  5
212
100
AcDbEntity
  8
0
 62
     7
100
AcDb2dPolyline
 66
     1
 10
0.0
 20
0.0
 30
0.0
  0
VERTEX
  5
213
100
AcDbEntity
  8
0
 62
     7
100
AcDbVertex
100
AcDb2dVertex
 10
36.566243
 20
156.309667
 30
0.0
  0
VERTEX
  5
214
100
AcDbEntity
  8
0
 62
     7
100
AcDbVertex
100
AcDb2dVertex
 10
38.471037
 20
156.819713
 30
0.0
  0
VERTEX
  5
215
100
AcDbEntity
  8
0
 62
     7
100
AcDbVertex
100
AcDb2dVertex
 10
36.566243
 20
157.329932
 30
0.0
  0
SEQEND
  5
216
100
AcDbEntity
  8
0
 62
     7
  0
POLYLINE
  5
20D
100
AcDbEntity
  8
0
 62
     7
100
AcDb2dPolyline
 66
     1
 10
0.0
 20
0.0
 30
0.0
  0
VERTEX
  5
20E
100
AcDbEntity
  8
0
 62
     7
100
AcDbVertex
100
AcDb2dVertex
 10
43.274878
 20
156.193911
 30
0.0
  0
VERTEX
  5
20F
100
AcDbEntity
  8
0
 62
     7
100
AcDbVertex
100
AcDb2dVertex
 10
41.369912
 20
156.70413
 30
0.0
  0
VERTEX
  5
210
100
AcDbEntity
  8
0
 62
     7
100
AcDbVertex
100
AcDb2dVertex
 10
43.274878
 20
157.214176
 30
0.0
  0
SEQEND
  5
211
100
AcDbEntity
  8
0
 62
     7
  0
MTEXT
  5
20C
100
AcDbEntity
  8
0
 62
     7
100
AcDbMText
 10
29.830048
 20
193.551487
 30
0.0
 40
2.602419
 41
0.0
 71
     1
 72
     2
  1
\W0.50;\fMS Gothic|b0|i0|c128;ゴムアスファルト系シール材
  7
KANJISTD
210
0.0
220
0.0
230
1.0
 11
1.000001
 21
0.0
 31
0.0
 73
     1
 44
1.0
  0
MTEXT
  5
20B
100
AcDbEntity
  8
0
 62
     7
100
AcDbMText
 10
39.027764
 20
202.33648
 30
0.0
 40
2.602419
 41
0.0
 71
     1
 72
     2
  1
\W0.50;\fMS Gothic|b0|i0|c128;シーリング材
  7
KANJISTD
210
0.0
220
0.0
230
1.0
 11
1.000001
 21
0.0
 31
0.0
 73
     1
 44
1.0
  0
LINE
  5
20A
100
AcDbEntity
  8
0
 62
     7
100
AcDbLine
 10
65.044264
 20
184.51208
 30
0.0
 11
66.028011
 21
185.49686
 31
0.0
  0
LINE
  5
209
100
AcDbEntity
  8
0
 62
     7
100
AcDbLine
 10
65.044264
 20
183.197259
 30
0.0
 11
67.352134
 21
185.50599
 31
0.0
  0
POLYLINE
  5
204
100
AcDbEntity
  8
0
 62
     7
100
AcDb2dPolyline
 66
     1
 10
0.0
 20
0.0
 30
0.0
  0
VERTEX
  5
205
100
AcDbEntity
  8
0
 62
     7
100
AcDbVertex
100
AcDb2dVertex
 10
66.030423
 20
173.807479
 30
0.0
  0
VERTEX
  5
206
100
AcDbEntity
  8
0
 62
     7
100
AcDbVertex
100
AcDb2dVertex
 10
55.60453
 20
192.161225
 30
0.0
  0
VERTEX
  5
207
100
AcDbEntity
  8
0
 62
     7
100
AcDbVertex
100
AcDb2dVertex
 10
53.362634
 20
192.161225
 30
0.0
  0
SEQEND
  5
208
100
AcDbEntity
  8
0
 62
     7
  0
POLYLINE
  5
1FF
100
AcDbEntity
  8
0
 62
     7
100
AcDb2dPolyline
 66
     1
 10
0.0
 20
0.0
 30
0.0
  0
VERTEX
  5
200
100
AcDbEntity
  8
0
 62
     7
100
AcDbVertex
100
AcDb2dVertex
 10
66.001312
 20
184.590972
 30
0.0
  0
VERTEX
  5
201
100
AcDbEntity
  8
0
 62
     7
100
AcDbVertex
100
AcDb2dVertex
 10
56.754331
 20
200.713502
 30
0.0
  0
VERTEX
  5
202
100
AcDbEntity
  8
0
 62
     7
100
AcDbVertex
100
AcDb2dVertex
 10
50.623611
 20
200.713502
 30
0.0
  0
SEQEND
  5
203
100
AcDbEntity
  8
0
 62
     7
  0
POLYLINE
  5
1FA
100
AcDbEntity
  8
0
 62
     7
100
AcDb2dPolyline
 66
     1
 10
0.0
 20
0.0
 30
0.0
  0
VERTEX
  5
1FB
100
AcDbEntity
  8
0
 62
     7
100
AcDbVertex
100
AcDb2dVertex
 10
76.640972
 20
175.506944
 30
0.0
  0
VERTEX
  5
1FC
100
AcDbEntity
  8
0
 62
     7
100
AcDbVertex
100
AcDb2dVertex
 10
89.824836
 20
192.981502
 30
0.0
  0
VERTEX
  5
1FD
100
AcDbEntity
  8
0
 62
     7
100
AcDbVertex
100
AcDb2dVertex
 10
92.066904
 20
192.981502
 30
0.0
  0
SEQEND
  5
1FE
100
AcDbEntity
  8
0
 62
     7
  0
SPLINE
  5
1F9
100
AcDbEntity
  8
0
 62
     7
100
AcDbSpline
210
0.0
220
0.0
230
1.0
 70
     8
 71
     3
 72
    11
 73
     7
 74
     0
 42
0.00000001
 43
0.00000001
 40
0.0
 40
0.0
 40
0.0
 40
0.0
 40
1.0
 40
1.0
 40
1.0
 40
2.0
 40
2.0
 40
2.0
 40
2.0
 10
67.33215196397569
 20
183.41946750217014
 30
0.0
 10
67.26772867838541
 20
183.84183620876735
 30
0.0
 10
67.254292805989579
 20
184.27057834201386
 30
0.0
 10
67.291844346788181
 20
184.69604763454859
 30
0.0
 10
67.343693033854166
 20
185.02712131076387
 30
0.0
 10
67.435160319010407
 20
185.35061577690971
 30
0.0
 10
67.564006890190967
 20
185.65981309678818
 30
0.0
  0
SPLINE
  5
1F8
100
AcDbEntity
  8
0
 62
     7
100
AcDbSpline
210
0.0
220
0.0
230
1.0
 70
     8
 71
     3
 72
    26
 73
    22
 74
     0
 42
0.00000001
 43
0.00000001
 40
0.0
 40
0.0
 40
0.0
 40
0.0
 40
1.0
 40
1.0
 40
1.0
 40
2.0
 40
2.0
 40
2.0
 40
3.0
 40
3.0
 40
3.0
 40
4.0
 40
4.0
 40
4.0
 40
5.0
 40
5.0
 40
5.0
 40
6.0
 40
6.0
 40
6.0
 40
7.0
 40
7.0
 40
7.0
 40
7.0
 10
183.37278645833331
 20
95.487367078993046
 30
0.0
 10
183.37278645833331
 20
95.487367078993046
 30
0.0
 10
71.52569444444444
 20
95.487367078993046
 30
0.0
 10
71.52569444444444
 20
95.487367078993046
 30
0.0
 10
71.52569444444444
 20
95.487367078993046
 30
0.0
 10
66.896002875434021
 20
99.900878906249986
 30
0.0
 10
66.896002875434021
 20
99.900878906249986
 30
0.0
 10
66.896002875434021
 20
99.900878906249986
 30
0.0
 10
66.85931260850694
 20
171.03607177734372
 30
0.0
 10
66.85931260850694
 20
171.03607177734372
 30
0.0
 10
66.582843695746519
 20
171.71182725694442
 30
0.0
 10
65.897269694010404
 20
172.12747802734373
 30
0.0
 10
65.170354546440961
 20
172.06012641059027
 30
0.0
 10
65.170354546440961
 20
172.06012641059027
 30
0.0
 10
65.176383463541654
 20
99.189466688368043
 30
0.0
 10
65.176383463541654
 20
99.189466688368043
 30
0.0
 10
65.176383463541654
 20
99.189466688368043
 30
0.0
 10
70.767256673177073
 20
93.76757541232638
 30
0.0
 10
70.767256673177073
 20
93.76757541232638
 30
0.0
 10
70.767256673177073
 20
93.76757541232638
 30
0.0
 10
183.37278645833331
 20
93.76757541232638
 30
0.0
 10
183.37278645833331
 20
93.76757541232638
 30
0.0
  0
LINE
  5
1F7
100
AcDbEntity
  8
0
 62
     7
100
AcDbLine
 10
183.370719
 20
109.518207
 30
0.0
 11
89.837755
 21
109.518207
 31
0.0
  0
LINE
  5
1F6
100
AcDbEntity
  8
0
 62
     7
100
AcDbLine
 10
183.370719
 20
99.237009
 30
0.0
 11
72.087762
 21
99.237009
 31
0.0
  0
LINE
  5
1F5
100
AcDbEntity
  8
0
 62
     7
100
AcDbLine
 10
140.547838
 20
103.210238
 30
0.0
 11
119.483835
 21
103.210238
 31
0.0
  0
LINE
  5
1F4
100
AcDbEntity
  8
0
 62
     7
100
AcDbLine
 10
133.186702
 20
69.286038
 30
0.0
 11
110.941376
 21
91.531364
 31
0.0
  0
LINE
  5
1F3
100
AcDbEntity
  8
0
 62
     7
100
AcDbLine
 10
131.895825
 20
69.261233
 30
0.0
 11
109.588143
 21
91.569604
 31
0.0
  0
LINE
  5
1F2
100
AcDbEntity
  8
0
 62
     7
100
AcDbLine
 10
130.713124
 20
69.129631
 30
0.0
 11
108.234909
 21
91.607501
 31
0.0
  0
LINE
  5
1F1
100
AcDbEntity
  8
0
 62
     7
100
AcDbLine
 10
126.110132
 20
98.854603
 30
0.0
 11
129.269629
 21
95.695106
 31
0.0
  0
LINE
  5
1F0
100
AcDbEntity
  8
0
 62
     7
100
AcDbLine
 10
129.319238
 20
98.854603
 30
0.0
 11
126.159397
 21
95.695106
 31
0.0
  0
LINE
  5
1EF
100
AcDbEntity
  8
0
 62
     7
100
AcDbLine
 10
128.739429
 20
98.854603
 30
0.0
 11
131.89927
 21
95.695106
 31
0.0
  0
LINE
  5
1EE
100
AcDbEntity
  8
0
 62
     7
100
AcDbLine
 10
131.948535
 20
98.854603
 30
0.0
 11
128.789038
 21
95.695106
 31
0.0
  0
LINE
  5
1ED
100
AcDbEntity
  8
0
 62
     7
100
AcDbLine
 10
128.198549
 20
109.478933
 30
0.0
 11
138.438751
 21
99.238387
 31
0.0
  0
POLYLINE
  5
1E7
100
AcDbEntity
  8
0
 62
     7
100
AcDb2dPolyline
 66
     1
 10
0.0
 20
0.0
 30
0.0
  0
VERTEX
  5
1E8
100
AcDbEntity
  8
0
 62
     7
100
AcDbVertex
100
AcDb2dVertex
 10
183.412405
 20
98.904557
 30
0.0
  0
VERTEX
  5
1E9
100
AcDbEntity
  8
0
 62
     7
100
AcDbVertex
100
AcDb2dVertex
 10
77.599742
 20
98.904557
 30
0.0
  0
VERTEX
  5
1EA
100
AcDbEntity
  8
0
 62
     7
100
AcDbVertex
100
AcDb2dVertex
 10
77.599742
 20
95.616214
 30
0.0
  0
VERTEX
  5
1EB
100
AcDbEntity
  8
0
 62
     7
100
AcDbVertex
100
AcDb2dVertex
 10
183.219135
 20
95.616214
 30
0.0
  0
SEQEND
  5
1EC
100
AcDbEntity
  8
0
 62
     7
  0
POLYLINE
  5
1E1
100
AcDbEntity
  8
0
 62
     7
100
AcDb2dPolyline
 66
     1
 10
0.0
 20
0.0
 30
0.0
  0
VERTEX
  5
1E2
100
AcDbEntity
  8
0
 62
     7
100
AcDbVertex
100
AcDb2dVertex
 10
143.196083
 20
98.148359
 30
0.0
  0
VERTEX
  5
1E3
100
AcDbEntity
  8
0
 62
     7
100
AcDbVertex
100
AcDb2dVertex
 10
143.196083
 20
79.568614
 30
0.0
  0
VERTEX
  5
1E4
100
AcDbEntity
  8
0
 62
     7
100
AcDbVertex
100
AcDb2dVertex
 10
66.902549
 20
79.568614
 30
0.0
  0
VERTEX
  5
1E5
100
AcDbEntity
  8
0
 62
     7
100
AcDbVertex
100
AcDb2dVertex
 10
66.902549
 20
87.659421
 30
0.0
  0
SEQEND
  5
1E6
100
AcDbEntity
  8
0
 62
     7
  0
LINE
  5
1E0
100
AcDbEntity
  8
0
 62
     7
100
AcDbLine
 10
76.376389
 20
169.50042
 30
0.0
 11
158.366561
 21
169.50042
 31
0.0
  0
MTEXT
  5
1DF
100
AcDbEntity
  8
0
 62
     7
100
AcDbMText
 10
91.636267
 20
127.663519
 30
0.0
 40
2.602419
 41
0.0
 71
     1
 72
     2
  1
\W0.50;\fMS Gothic|b0|i0|c128;アンカー
  7
KANJISTD
210
0.0
220
0.0
230
1.0
 11
1.000001
 21
0.0
 31
0.0
 73
     1
 44
1.0
  0
POLYLINE
  5
1DA
100
AcDbEntity
  8
0
 62
     7
100
AcDb2dPolyline
 66
     1
 10
0.0
 20
0.0
 30
0.0
  0
VERTEX
  5
1DB
100
AcDbEntity
  8
0
 62
     7
100
AcDbVertex
100
AcDb2dVertex
 10
76.538136
 20
112.362134
 30
0.0
  0
VERTEX
  5
1DC
100
AcDbEntity
  8
0
 62
     7
100
AcDbVertex
100
AcDb2dVertex
 10
89.996402
 20
131.388707
 30
0.0
  0
VERTEX
  5
1DD
100
AcDbEntity
  8
0
 62
     7
100
AcDbVertex
100
AcDb2dVertex
 10
92.238642
 20
131.388707
 30
0.0
  0
SEQEND
  5
1DE
100
AcDbEntity
  8
0
 62
     7
  0
POLYLINE
  5
1D5
100
AcDbEntity
  8
0
 62
     7
100
AcDb2dPolyline
 66
     1
 10
0.0
 20
0.0
 30
0.0
  0
VERTEX
  5
1D6
100
AcDbEntity
  8
0
 62
     7
100
AcDbVertex
100
AcDb2dVertex
 10
74.392014
 20
107.376736
 30
0.0
  0
VERTEX
  5
1D7
100
AcDbEntity
  8
0
 62
     7
100
AcDbVertex
100
AcDb2dVertex
 10
88.604928
 20
126.432248
 30
0.0
  0
VERTEX
  5
1D8
100
AcDbEntity
  8
0
 62
     7
100
AcDbVertex
100
AcDb2dVertex
 10
90.847168
 20
126.432248
 30
0.0
  0
SEQEND
  5
1D9
100
AcDbEntity
  8
0
 62
     7
  0
POLYLINE
  5
1D0
100
AcDbEntity
  8
0
 62
     7
100
AcDb2dPolyline
 66
     1
 10
0.0
 20
0.0
 30
0.0
  0
VERTEX
  5
1D1
100
AcDbEntity
  8
0
 62
     7
100
AcDbVertex
100
AcDb2dVertex
 10
68.019793
 20
108.225952
 30
0.0
  0
VERTEX
  5
1D2
100
AcDbEntity
  8
0
 62
     7
100
AcDbVertex
100
AcDb2dVertex
 10
86.639501
 20
140.561618
 30
0.0
  0
VERTEX
  5
1D3
100
AcDbEntity
  8
0
 62
     7
100
AcDbVertex
100
AcDb2dVertex
 10
88.881569
 20
140.561618
 30
0.0
  0
SEQEND
  5
1D4
100
AcDbEntity
  8
0
 62
     7
  0
POLYLINE
  5
1CA
100
AcDbEntity
  8
0
 62
     7
100
AcDb2dPolyline
 66
     1
 10
0.0
 20
0.0
 30
0.0
 70
     1
  0
VERTEX
  5
1CB
100
AcDbEntity
  8
0
 62
     7
100
AcDbVertex
100
AcDb2dVertex
 10
75.085512
 20
111.378559
 30
0.0
  0
VERTEX
  5
1CC
100
AcDbEntity
  8
0
 62
     7
100
AcDbVertex
100
AcDb2dVertex
 10
75.085512
 20
169.478027
 30
0.0
  0
VERTEX
  5
1CD
100
AcDbEntity
  8
0
 62
     7
100
AcDbVertex
100
AcDb2dVertex
 10
73.116123
 20
169.478027
 30
0.0
  0
VERTEX
  5
1CE
100
AcDbEntity
  8
0
 62
     7
100
AcDbVertex
100
AcDb2dVertex
 10
73.116123
 20
111.378559
 30
0.0
  0
SEQEND
  5
1CF
100
AcDbEntity
  8
0
 62
     7
  0
LINE
  5
1C9
100
AcDbEntity
  8
0
 62
     7
100
AcDbLine
 10
115.231898
 20
103.210238
 30
0.0
 11
71.62388
 21
103.210238
 31
0.0
  0
LINE
  5
1C8
100
AcDbEntity
  8
0
 62
     7
100
AcDbLine
 10
87.590002
 20
88.58753
 30
0.0
 11
82.633027
 21
93.544333
 31
0.0
  0
LINE
  5
1C7
100
AcDbEntity
  8
0
 62
     7
100
AcDbLine
 10
105.600789
 20
69.261233
 30
0.0
 11
86.275354
 21
88.58753
 31
0.0
  0
LINE
  5
1C6
100
AcDbEntity
  8
0
 62
     7
100
AcDbLine
 10
104.41826
 20
69.129631
 30
0.0
 11
84.922293
 21
88.62577
 31
0.0
  0
LINE
  5
1C5
100
AcDbEntity
  8
0
 62
     7
100
AcDbLine
 10
86.667923
 20
98.854603
 30
0.0
 11
89.827592
 21
95.695106
 31
0.0
  0
LINE
  5
1C4
100
AcDbEntity
  8
0
 62
     7
100
AcDbLine
 10
89.876857
 20
98.854603
 30
0.0
 11
86.717015
 21
95.695106
 31
0.0
  0
LINE
  5
1C3
100
AcDbEntity
  8
0
 62
     7
100
AcDbLine
 10
84.038454
 20
98.854603
 30
0.0
 11
87.198123
 21
95.695106
 31
0.0
  0
LINE
  5
1C2
100
AcDbEntity
  8
0
 62
     7
100
AcDbLine
 10
87.247388
 20
98.854603
 30
0.0
 11
84.087718
 21
95.695106
 31
0.0
  0
LINE
  5
1C1
100
AcDbEntity
  8
0
 62
     7
100
AcDbLine
 10
76.788078
 20
109.614326
 30
0.0
 11
87.17573
 21
99.226329
 31
0.0
  0
LINE
  5
1C0
100
AcDbEntity
  8
0
 62
     7
100
AcDbLine
 10
78.156642
 20
109.560238
 30
0.0
 11
88.470913
 21
99.246311
 31
0.0
  0
MTEXT
  5
1BF
100
AcDbEntity
  8
0
 62
     7
100
AcDbMText
 10
86.094148
 20
103.918894
 30
0.0
 40
2.602419
 41
0.0
 71
     1
 72
     2
  1
\W0.50;\fMS Gothic|b0|i0|c128;50以下
  7
KANJISTD
210
0.0
220
0.0
230
1.0
 11
0.0
 21
1.0
 31
0.0
 73
     1
 44
1.0
  0
LINE
  5
1BE
100
AcDbEntity
  8
0
 62
     7
100
AcDbLine
 10
81.408812
 20
98.854603
 30
0.0
 11
84.568654
 21
95.695106
 31
0.0
  0
LINE
  5
1BD
100
AcDbEntity
  8
0
 62
     7
100
AcDbLine
 10
84.617919
 20
98.854603
 30
0.0
 11
81.458077
 21
95.695106
 31
0.0
  0
LINE
  5
1BC
100
AcDbEntity
  8
0
 62
     7
100
AcDbLine
 10
78.779343
 20
98.854603
 30
0.0
 11
81.939012
 21
95.695106
 31
0.0
  0
LINE
  5
1BB
100
AcDbEntity
  8
0
 62
     7
100
AcDbLine
 10
81.988277
 20
98.854603
 30
0.0
 11
78.82878
 21
95.695106
 31
0.0
  0
LINE
  5
1BA
100
AcDbEntity
  8
0
 62
     7
100
AcDbLine
 10
77.728761
 20
97.278472
 30
0.0
 11
79.309543
 21
95.695106
 31
0.0
  0
LINE
  5
1B9
100
AcDbEntity
  8
0
 62
     7
100
AcDbLine
 10
79.358808
 20
98.854603
 30
0.0
 11
77.728761
 21
97.190278
 31
0.0
  0
POLYLINE
  5
1B4
100
AcDbEntity
  8
0
 62
     7
100
AcDb2dPolyline
 66
     1
 10
0.0
 20
0.0
 30
0.0
  0
VERTEX
  5
1B5
100
AcDbEntity
  8
0
 62
     7
100
AcDbVertex
100
AcDb2dVertex
 10
74.073859
 20
103.648109
 30
0.0
  0
VERTEX
  5
1B6
100
AcDbEntity
  8
0
 62
     7
100
AcDbVertex
100
AcDb2dVertex
 10
74.073859
 20
87.655632
 30
0.0
  0
VERTEX
  5
1B7
100
AcDbEntity
  8
0
 62
     7
100
AcDbVertex
100
AcDb2dVertex
 10
65.57567
 20
87.655632
 30
0.0
  0
SEQEND
  5
1B8
100
AcDbEntity
  8
0
 62
     7
  0
LINE
  5
1B3
100
AcDbEntity
  8
0
 62
     7
100
AcDbLine
 10
66.869131
 20
100.749061
 30
0.0
 11
66.869131
 21
87.655632
 31
0.0
  0
LINE
  5
1B2
100
AcDbEntity
  8
0
 62
     7
100
AcDbLine
 10
66.751481
 20
87.659421
 30
0.0
 11
62.804435
 21
87.659421
 31
0.0
  0
POLYLINE
  5
1AD
100
AcDbEntity
  8
0
 62
     7
100
AcDb2dPolyline
 66
     1
 10
0.0
 20
0.0
 30
0.0
  0
VERTEX
  5
1AE
100
AcDbEntity
  8
0
 62
     7
100
AcDbVertex
100
AcDb2dVertex
 10
68.807514
 20
79.058396
 30
0.0
  0
VERTEX
  5
1AF
100
AcDbEntity
  8
0
 62
     7
100
AcDbVertex
100
AcDb2dVertex
 10
66.902549
 20
79.568614
 30
0.0
  0
VERTEX
  5
1B0
100
AcDbEntity
  8
0
 62
     7
100
AcDbVertex
100
AcDb2dVertex
 10
68.807514
 20
80.078833
 30
0.0
  0
SEQEND
  5
1B1
100
AcDbEntity
  8
0
 62
     7
  0
MTEXT
  5
1AC
100
AcDbEntity
  8
0
 62
     7
100
AcDbMText
 10
67.978969
 20
90.774814
 30
0.0
 40
2.602419
 41
0.0
 71
     1
 72
     2
  1
\W0.50;\fMS Gothic|b0|i0|c128;30以上
  7
KANJISTD
210
0.0
220
0.0
230
1.0
 11
1.000001
 21
0.0
 31
0.0
 73
     1
 44
1.0
  0
LINE
  5
1AB
100
AcDbEntity
  8
0
 62
     7
100
AcDbLine
 10
70.71937
 20
87.659421
 30
0.0
 11
67.027778
 21
87.659421
 31
0.0
  0
POLYLINE
  5
1A6
100
AcDbEntity
  8
0
 62
     7
100
AcDb2dPolyline
 66
     1
 10
0.0
 20
0.0
 30
0.0
  0
VERTEX
  5
1A7
100
AcDbEntity
  8
0
 62
     7
100
AcDbVertex
100
AcDb2dVertex
 10
64.846688
 20
87.149547
 30
0.0
  0
VERTEX
  5
1A8
100
AcDbEntity
  8
0
 62
     7
100
AcDbVertex
100
AcDb2dVertex
 10
66.751481
 20
87.659421
 30
0.0
  0
VERTEX
  5
1A9
100
AcDbEntity
  8
0
 62
     7
100
AcDbVertex
100
AcDb2dVertex
 10
64.846688
 20
88.171018
 30
0.0
  0
SEQEND
  5
1AA
100
AcDbEntity
  8
0
 62
     7
  0
LINE
  5
1A5
100
AcDbEntity
  8
0
 62
     7
100
AcDbLine
 10
86.275354
 20
88.58753
 30
0.0
 11
81.337843
 21
93.524352
 31
0.0
  0
LINE
  5
1A4
100
AcDbEntity
  8
0
 62
     7
100
AcDbLine
 10
84.922293
 20
88.62577
 30
0.0
 11
80.013721
 21
93.533653
 31
0.0
  0
POLYLINE
  5
19F
100
AcDbEntity
  8
0
 62
     7
100
AcDb2dPolyline
 66
     1
 10
0.0
 20
0.0
 30
0.0
  0
VERTEX
  5
1A0
100
AcDbEntity
  8
0
 62
     7
100
AcDbVertex
100
AcDb2dVertex
 10
75.961944
 20
87.149547
 30
0.0
  0
VERTEX
  5
1A1
100
AcDbEntity
  8
0
 62
     7
100
AcDbVertex
100
AcDb2dVertex
 10
74.056978
 20
87.659421
 30
0.0
  0
VERTEX
  5
1A2
100
AcDbEntity
  8
0
 62
     7
100
AcDbVertex
100
AcDb2dVertex
 10
75.961944
 20
88.171018
 30
0.0
  0
SEQEND
  5
1A3
100
AcDbEntity
  8
0
 62
     7
  0
LINE
  5
19E
100
AcDbEntity
  8
0
 62
     7
100
AcDbLine
 10
74.056978
 20
87.659421
 30
0.0
 11
78.004197
 21
87.659421
 31
0.0
  0
POLYLINE
  5
194
100
AcDbEntity
  8
0
 62
     7
100
AcDb2dPolyline
 66
     1
 10
0.0
 20
0.0
 30
0.0
 70
     1
  0
VERTEX
  5
195
100
AcDbEntity
  8
0
 62
     7
100
AcDbVertex
100
AcDb2dVertex
 10
75.97159
 20
113.549314
 30
0.0
  0
VERTEX
  5
196
100
AcDbEntity
  8
0
 62
     7
100
AcDbVertex
100
AcDb2dVertex
 10
75.969868
 20
110.320226
 30
0.0
  0
VERTEX
  5
197
100
AcDbEntity
  8
0
 62
     7
100
AcDbVertex
100
AcDb2dVertex
 10
72.22281
 20
110.320226
 30
0.0
  0
VERTEX
  5
198
100
AcDbEntity
  8
0
 62
     7
100
AcDbVertex
100
AcDb2dVertex
 10
72.22281
 20
113.549314
 30
0.0
  0
VERTEX
  5
199
100
AcDbEntity
  8
0
 62
     7
100
AcDbVertex
100
AcDb2dVertex
 10
72.652585
 20
113.549314
 30
0.0
  0
VERTEX
  5
19A
100
AcDbEntity
  8
0
 62
     7
100
AcDbVertex
100
AcDb2dVertex
 10
72.652585
 20
110.750174
 30
0.0
  0
VERTEX
  5
19B
100
AcDbEntity
  8
0
 62
     7
100
AcDbVertex
100
AcDb2dVertex
 10
75.54147
 20
110.750174
 30
0.0
  0
VERTEX
  5
19C
100
AcDbEntity
  8
0
 62
     7
100
AcDbVertex
100
AcDb2dVertex
 10
75.54147
 20
113.549314
 30
0.0
  0
SEQEND
  5
19D
100
AcDbEntity
  8
0
 62
     7
  0
SPLINE
  5
193
100
AcDbEntity
  8
0
 62
     7
100
AcDbSpline
210
0.0
220
0.0
230
1.0
 70
     8
 71
     3
 72
    17
 73
    13
 74
     0
 42
0.00000001
 43
0.00000001
 40
0.0
 40
0.0
 40
0.0
 40
0.0
 40
1.0
 40
1.0
 40
1.0
 40
2.0
 40
2.0
 40
2.0
 40
3.0
 40
3.0
 40
3.0
 40
4.0
 40
4.0
 40
4.0
 40
4.0
 10
68.209962293836796
 20
107.94173177083333
 30
0.0
 10
68.285926649305551
 20
108.01063368055554
 30
0.0
 10
68.32967936197916
 20
108.10778537326388
 30
0.0
 10
68.330540635850681
 20
108.21010470920137
 30
0.0
 10
68.329334852430549
 20
108.40750868055555
 30
0.0
 10
68.169654676649301
 20
108.5673611111111
 30
0.0
 10
67.972250705295139
 20
108.56908365885415
 30
0.0
 10
67.774846733940961
 20
108.5673611111111
 30
0.0
 10
67.615166558159714
 20
108.40750868055555
 30
0.0
 10
67.613960774739581
 20
108.21010470920137
 30
0.0
 10
67.705944824218747
 20
107.97273763020833
 30
0.0
 10
67.971389431423603
 20
107.85353732638887
 30
0.0
 10
68.209962293836796
 20
107.94173177083333
 30
0.0
  0
SPLINE
  5
192
100
AcDbEntity
  8
0
 62
     7
100
AcDbSpline
210
0.0
220
0.0
230
1.0
 70
     8
 71
     3
 72
    17
 73
    13
 74
     0
 42
0.00000001
 43
0.00000001
 40
0.0
 40
0.0
 40
0.0
 40
0.0
 40
1.0
 40
1.0
 40
1.0
 40
2.0
 40
2.0
 40
2.0
 40
3.0
 40
3.0
 40
3.0
 40
4.0
 40
4.0
 40
4.0
 40
4.0
 10
76.417557779947913
 20
112.09376085069444
 30
0.0
 10
76.493522135416654
 20
112.16231825086804
 30
0.0
 10
76.537274848090277
 20
112.25981445312499
 30
0.0
 10
76.538136121961799
 20
112.36213378906248
 30
0.0
 10
76.536930338541666
 20
112.55953776041666
 30
0.0
 10
76.377422417534717
 20
112.71939019097221
 30
0.0
 10
76.179846191406241
 20
112.72111273871526
 30
0.0
 10
75.982442220052079
 20
112.71939019097221
 30
0.0
 10
75.82293429904513
 20
112.55953776041666
 30
0.0
 10
75.821556260850684
 20
112.36213378906248
 30
0.0
 10
75.91354031032985
 20
112.12476671006944
 30
0.0
 10
76.17898491753472
 20
112.00522189670139
 30
0.0
 10
76.417557779947913
 20
112.09376085069444
 30
0.0
  0
POLYLINE
  5
18D
100
AcDbEntity
  8
0
 62
     7
100
AcDb2dPolyline
 66
     1
 10
0.0
 20
0.0
 30
0.0
  0
VERTEX
  5
18E
100
AcDbEntity
  8
0
 62
     7
100
AcDbVertex
100
AcDb2dVertex
 10
78.551622
 20
104.652355
 30
0.0
  0
VERTEX
  5
18F
100
AcDbEntity
  8
0
 62
     7
100
AcDbVertex
100
AcDb2dVertex
 10
85.199451
 20
104.652355
 30
0.0
  0
VERTEX
  5
190
100
AcDbEntity
  8
0
 62
     7
100
AcDbVertex
100
AcDb2dVertex
 10
85.199451
 20
116.391517
 30
0.0
  0
SEQEND
  5
191
100
AcDbEntity
  8
0
 62
     7
  0
POLYLINE
  5
188
100
AcDbEntity
  8
0
 62
     7
100
AcDb2dPolyline
 66
     1
 10
0.0
 20
0.0
 30
0.0
  0
VERTEX
  5
189
100
AcDbEntity
  8
0
 62
     7
100
AcDbVertex
100
AcDb2dVertex
 10
84.728334
 20
111.492936
 30
0.0
  0
VERTEX
  5
18A
100
AcDbEntity
  8
0
 62
     7
100
AcDbVertex
100
AcDb2dVertex
 10
85.238725
 20
109.589176
 30
0.0
  0
VERTEX
  5
18B
100
AcDbEntity
  8
0
 62
     7
100
AcDbVertex
100
AcDb2dVertex
 10
85.749116
 20
111.492936
 30
0.0
  0
SEQEND
  5
18C
100
AcDbEntity
  8
0
 62
     7
  0
LINE
  5
187
100
AcDbEntity
  8
0
 62
     7
100
AcDbLine
 10
85.972702
 20
109.518207
 30
0.0
 11
67.115972
 21
109.518207
 31
0.0
  0
LINE
  5
186
100
AcDbEntity
  8
0
 62
     7
100
AcDbLine
 10
75.608822
 20
109.478933
 30
0.0
 11
85.880718
 21
99.206692
 31
0.0
  0
SPLINE
  5
185
100
AcDbEntity
  8
0
 62
     7
100
AcDbSpline
210
0.0
220
0.0
230
1.0
 70
     8
 71
     3
 72
    17
 73
    13
 74
     0
 42
0.00000001
 43
0.00000001
 40
0.0
 40
0.0
 40
0.0
 40
0.0
 40
1.0
 40
1.0
 40
1.0
 40
2.0
 40
2.0
 40
2.0
 40
3.0
 40
3.0
 40
3.0
 40
4.0
 40
4.0
 40
4.0
 40
4.0
 10
80.917886013454847
 20
103.30738932291666
 30
0.0
 10
81.158698187934021
 20
103.46379665798611
 30
0.0
 10
81.296846516927076
 20
103.73733723958333
 30
0.0
 10
81.279621039496519
 20
104.02396918402776
 30
0.0
 10
81.20193413628472
 20
104.40051812065971
 30
0.0
 10
80.86138644748263
 20
104.6637234157986
 30
0.0
 10
80.477430555555543
 20
104.64443088107637
 30
0.0
 10
80.101570638020831
 20
104.56657172309026
 30
0.0
 10
79.838537597656241
 20
104.22619628906249
 30
0.0
 10
79.858174641927079
 20
103.84241265190971
 30
0.0
 10
80.030946180555546
 20
103.42727864583333
 30
0.0
 10
80.48104790581597
 20
103.19990234375
 30
0.0
 10
80.917886013454847
 20
103.30738932291666
 30
0.0
  0
LINE
  5
184
100
AcDbEntity
  8
0
 62
     7
100
AcDbLine
 10
85.199451
 20
104.652355
 30
0.0
 11
85.199451
 21
100.081057
 31
0.0
  0
POLYLINE
  5
17F
100
AcDbEntity
  8
0
 62
     7
100
AcDb2dPolyline
 66
     1
 10
0.0
 20
0.0
 30
0.0
  0
VERTEX
  5
180
100
AcDbEntity
  8
0
 62
     7
100
AcDbVertex
100
AcDb2dVertex
 10
84.697673
 20
102.709321
 30
0.0
  0
VERTEX
  5
181
100
AcDbEntity
  8
0
 62
     7
100
AcDbVertex
100
AcDb2dVertex
 10
85.208063
 20
104.613081
 30
0.0
  0
VERTEX
  5
182
100
AcDbEntity
  8
0
 62
     7
100
AcDbVertex
100
AcDb2dVertex
 10
85.718454
 20
102.709321
 30
0.0
  0
SEQEND
  5
183
100
AcDbEntity
  8
0
 62
     7
  0
LINE
  5
17E
100
AcDbEntity
  8
0
 62
     7
100
AcDbLine
 10
74.054395
 20
110.992019
 30
0.0
 11
74.054395
 21
104.511795
 31
0.0
  0
SPLINE
  5
17D
100
AcDbEntity
  8
0
 62
     7
100
AcDbSpline
210
0.0
220
0.0
230
1.0
 70
     8
 71
     3
 72
    17
 73
    13
 74
     0
 42
0.00000001
 43
0.00000001
 40
0.0
 40
0.0
 40
0.0
 40
0.0
 40
1.0
 40
1.0
 40
1.0
 40
2.0
 40
2.0
 40
2.0
 40
3.0
 40
3.0
 40
3.0
 40
4.0
 40
4.0
 40
4.0
 40
4.0
 10
74.315532769097217
 20
106.80863986545138
 30
0.0
 10
74.391497124565959
 20
106.87719726562499
 30
0.0
 10
74.435249837239581
 20
106.97434895833332
 30
0.0
 10
74.436111111111103
 20
107.07666829427082
 30
0.0
 10
74.434560818142359
 20
107.27407226562499
 30
0.0
 10
74.27505289713541
 20
107.43323567708332
 30
0.0
 10
74.077821180555546
 20
107.43426920572915
 30
0.0
 10
73.880761718749994
 20
107.43323567708332
 30
0.0
 10
73.721253797743046
 20
107.27407226562499
 30
0.0
 10
73.719531249999989
 20
107.07666829427082
 30
0.0
 10
73.811515299479154
 20
106.83964572482638
 30
0.0
 10
74.076959906684024
 20
106.72010091145832
 30
0.0
 10
74.315532769097217
 20
106.80863986545138
 30
0.0
  0
LINE
  5
17C
100
AcDbEntity
  8
0
 62
     7
100
AcDbLine
 10
89.297392
 20
98.854603
 30
0.0
 11
92.457061
 21
95.695106
 31
0.0
  0
LINE
  5
17B
100
AcDbEntity
  8
0
 62
     7
100
AcDbLine
 10
92.506326
 20
98.854603
 30
0.0
 11
89.346657
 21
95.695106
 31
0.0
  0
LINE
  5
17A
100
AcDbEntity
  8
0
 62
     7
100
AcDbLine
 10
91.926861
 20
98.854603
 30
0.0
 11
95.08653
 21
95.695106
 31
0.0
  0
LINE
  5
179
100
AcDbEntity
  8
0
 62
     7
100
AcDbLine
 10
95.135967
 20
98.854603
 30
0.0
 11
91.976126
 21
95.695106
 31
0.0
  0
LINE
  5
178
100
AcDbEntity
  8
0
 62
     7
100
AcDbLine
 10
94.55633
 20
98.854603
 30
0.0
 11
97.715999
 21
95.695106
 31
0.0
  0
LINE
  5
177
100
AcDbEntity
  8
0
 62
     7
100
AcDbLine
 10
97.765264
 20
98.854603
 30
0.0
 11
94.605595
 21
95.695106
 31
0.0
  0
LINE
  5
176
100
AcDbEntity
  8
0
 62
     7
100
AcDbLine
 10
97.185799
 20
98.854603
 30
0.0
 11
100.345468
 21
95.695106
 31
0.0
  0
LINE
  5
175
100
AcDbEntity
  8
0
 62
     7
100
AcDbLine
 10
100.394733
 20
98.854603
 30
0.0
 11
97.235064
 21
95.695106
 31
0.0
  0
LINE
  5
174
100
AcDbEntity
  8
0
 62
     7
100
AcDbLine
 10
99.815268
 20
98.854603
 30
0.0
 11
102.974938
 21
95.695106
 31
0.0
  0
LINE
  5
173
100
AcDbEntity
  8
0
 62
     7
100
AcDbLine
 10
103.024202
 20
98.854603
 30
0.0
 11
99.864533
 21
95.695106
 31
0.0
  0
LINE
  5
172
100
AcDbEntity
  8
0
 62
     7
100
AcDbLine
 10
102.444737
 20
98.854603
 30
0.0
 11
105.604579
 21
95.695106
 31
0.0
  0
LINE
  5
171
100
AcDbEntity
  8
0
 62
     7
100
AcDbLine
 10
105.653499
 20
98.854603
 30
0.0
 11
102.494002
 21
95.695106
 31
0.0
  0
LINE
  5
170
100
AcDbEntity
  8
0
 62
     7
100
AcDbLine
 10
105.074379
 20
98.854603
 30
0.0
 11
108.233876
 21
95.695106
 31
0.0
  0
LINE
  5
16F
100
AcDbEntity
  8
0
 62
     7
100
AcDbLine
 10
108.283141
 20
98.854603
 30
0.0
 11
105.123644
 21
95.695106
 31
0.0
  0
LINE
  5
16E
100
AcDbEntity
  8
0
 62
     7
100
AcDbLine
 10
107.703676
 20
98.854603
 30
0.0
 11
110.863173
 21
95.695106
 31
0.0
  0
LINE
  5
16D
100
AcDbEntity
  8
0
 62
     7
100
AcDbLine
 10
110.912782
 20
98.854603
 30
0.0
 11
107.752941
 21
95.695106
 31
0.0
  0
LINE
  5
16C
100
AcDbEntity
  8
0
 62
     7
100
AcDbLine
 10
110.333317
 20
98.854603
 30
0.0
 11
113.492814
 21
95.695106
 31
0.0
  0
LINE
  5
16B
100
AcDbEntity
  8
0
 62
     7
100
AcDbLine
 10
113.542424
 20
98.854603
 30
0.0
 11
110.382582
 21
95.695106
 31
0.0
  0
LINE
  5
16A
100
AcDbEntity
  8
0
 62
     7
100
AcDbLine
 10
112.962614
 20
98.854603
 30
0.0
 11
116.122456
 21
95.695106
 31
0.0
  0
LINE
  5
169
100
AcDbEntity
  8
0
 62
     7
100
AcDbLine
 10
116.171376
 20
98.854603
 30
0.0
 11
113.011879
 21
95.695106
 31
0.0
  0
LINE
  5
168
100
AcDbEntity
  8
0
 62
     7
100
AcDbLine
 10
115.592255
 20
98.854603
 30
0.0
 11
118.751752
 21
95.695106
 31
0.0
  0
LINE
  5
167
100
AcDbEntity
  8
0
 62
     7
100
AcDbLine
 10
118.801017
 20
98.854603
 30
0.0
 11
115.64152
 21
95.695106
 31
0.0
  0
LINE
  5
166
100
AcDbEntity
  8
0
 62
     7
100
AcDbLine
 10
118.221552
 20
98.854603
 30
0.0
 11
121.381394
 21
95.695106
 31
0.0
  0
LINE
  5
165
100
AcDbEntity
  8
0
 62
     7
100
AcDbLine
 10
121.430659
 20
98.854603
 30
0.0
 11
118.270817
 21
95.695106
 31
0.0
  0
LINE
  5
164
100
AcDbEntity
  8
0
 62
     7
100
AcDbLine
 10
120.851194
 20
98.854603
 30
0.0
 11
124.011035
 21
95.695106
 31
0.0
  0
LINE
  5
163
100
AcDbEntity
  8
0
 62
     7
100
AcDbLine
 10
124.059956
 20
98.854603
 30
0.0
 11
120.900458
 21
95.695106
 31
0.0
  0
LINE
  5
162
100
AcDbEntity
  8
0
 62
     7
100
AcDbLine
 10
123.480835
 20
98.854603
 30
0.0
 11
126.640332
 21
95.695106
 31
0.0
  0
LINE
  5
161
100
AcDbEntity
  8
0
 62
     7
100
AcDbLine
 10
126.689597
 20
98.854603
 30
0.0
 11
123.529755
 21
95.695106
 31
0.0
  0
LINE
  5
160
100
AcDbEntity
  8
0
 62
     7
100
AcDbLine
 10
109.588143
 20
91.569604
 30
0.0
 11
107.632707
 21
93.524352
 31
0.0
  0
LINE
  5
15F
100
AcDbEntity
  8
0
 62
     7
100
AcDbLine
 10
108.234909
 20
91.607501
 30
0.0
 11
106.308412
 21
93.533653
 31
0.0
  0
MTEXT
  5
15E
100
AcDbEntity
  8
0
 62
     7
100
AcDbMText
 10
101.298899
 20
82.519332
 30
0.0
 40
2.602419
 41
0.0
 71
     1
 72
     2
  1
\W0.50;\fMS Gothic|b0|i0|c128;600程度
  7
KANJISTD
210
0.0
220
0.0
230
1.0
 11
1.000001
 21
0.0
 31
0.0
 73
     1
 44
1.0
  0
LINE
  5
15D
100
AcDbEntity
  8
0
 62
     7
100
AcDbLine
 10
106.892011
 20
69.286038
 30
0.0
 11
87.590002
 21
88.58753
 31
0.0
  0
LINE
  5
15C
100
AcDbEntity
  8
0
 62
     7
100
AcDbLine
 10
110.941376
 20
91.531364
 30
0.0
 11
108.927718
 21
93.544333
 31
0.0
  0
LINE
  5
15B
100
AcDbEntity
  8
0
 62
     7
100
AcDbLine
 10
101.903685
 20
109.478933
 30
0.0
 11
112.159562
 21
99.22254
 31
0.0
  0
LINE
  5
15A
100
AcDbEntity
  8
0
 62
     7
100
AcDbLine
 10
103.082941
 20
109.614326
 30
0.0
 11
113.454918
 21
99.242177
 31
0.0
  0
LINE
  5
159
100
AcDbEntity
  8
0
 62
     7
100
AcDbLine
 10
104.451506
 20
109.560238
 30
0.0
 11
114.808152
 21
99.204281
 31
0.0
  0
SPLINE
  5
158
100
AcDbEntity
  8
0
 62
     7
100
AcDbSpline
210
0.0
220
0.0
230
1.0
 70
     8
 71
     3
 72
    17
 73
    13
 74
     0
 42
0.00000001
 43
0.00000001
 40
0.0
 40
0.0
 40
0.0
 40
0.0
 40
1.0
 40
1.0
 40
1.0
 40
2.0
 40
2.0
 40
2.0
 40
3.0
 40
3.0
 40
3.0
 40
4.0
 40
4.0
 40
4.0
 40
4.0
 10
108.52739800347221
 20
103.30738932291666
 30
0.0
 10
108.76821017795137
 20
103.46379665798611
 30
0.0
 10
108.90635850694443
 20
103.73733723958333
 30
0.0
 10
108.88913302951389
 20
104.02396918402776
 30
0.0
 10
108.81161838107639
 20
104.40051812065971
 30
0.0
 10
108.4708984375
 20
104.6637234157986
 30
0.0
 10
108.08711480034721
 20
104.64443088107637
 30
0.0
 10
107.71091037326389
 20
104.56657172309026
 30
0.0
 10
107.44804958767359
 20
104.22619628906249
 30
0.0
 10
107.46768663194443
 20
103.84241265190971
 30
0.0
 10
107.64063042534721
 20
103.42727864583333
 30
0.0
 10
108.09055989583332
 20
103.19990234375
 30
0.0
 10
108.52739800347221
 20
103.30738932291666
 30
0.0
  0
SPLINE
  5
157
100
AcDbEntity
  8
0
 62
     7
100
AcDbSpline
210
0.0
220
0.0
230
1.0
 70
     8
 71
     3
 72
    17
 73
    13
 74
     0
 42
0.00000001
 43
0.00000001
 40
0.0
 40
0.0
 40
0.0
 40
0.0
 40
1.0
 40
1.0
 40
1.0
 40
2.0
 40
2.0
 40
2.0
 40
3.0
 40
3.0
 40
3.0
 40
4.0
 40
4.0
 40
4.0
 40
4.0
 10
90.121114095052079
 20
103.30738932291666
 30
0.0
 10
90.361926269531239
 20
103.46379665798611
 30
0.0
 10
90.500074598524293
 20
103.73733723958333
 30
0.0
 10
90.482849121093736
 20
104.02396918402776
 30
0.0
 10
90.405162217881937
 20
104.40051812065971
 30
0.0
 10
90.064442274305549
 20
104.6637234157986
 30
0.0
 10
89.680658637152774
 20
104.64443088107637
 30
0.0
 10
89.304626464843736
 20
104.56657172309026
 30
0.0
 10
89.041765679253459
 20
104.22619628906249
 30
0.0
 10
89.061230468749997
 20
103.84241265190971
 30
0.0
 10
89.234174262152763
 20
103.42727864583333
 30
0.0
 10
89.684103732638874
 20
103.19990234375
 30
0.0
 10
90.121114095052079
 20
103.30738932291666
 30
0.0
  0
SPLINE
  5
156
100
AcDbEntity
  8
0
 62
     7
100
AcDbSpline
210
0.0
220
0.0
230
1.0
 70
     8
 71
     3
 72
    17
 73
    13
 74
     0
 42
0.00000001
 43
0.00000001
 40
0.0
 40
0.0
 40
0.0
 40
0.0
 40
1.0
 40
1.0
 40
1.0
 40
2.0
 40
2.0
 40
2.0
 40
3.0
 40
3.0
 40
3.0
 40
4.0
 40
4.0
 40
4.0
 40
4.0
 10
99.324342176649296
 20
103.30738932291666
 30
0.0
 10
99.56515435112847
 20
103.46379665798611
 30
0.0
 10
99.703130425347211
 20
103.73733723958333
 30
0.0
 10
99.685904947916654
 20
104.02396918402776
 30
0.0
 10
99.608218044704856
 20
104.4001736111111
 30
0.0
 10
99.267842610677079
 20
104.6637234157986
 30
0.0
 10
98.883886718749991
 20
104.64443088107637
 30
0.0
 10
98.507854546440967
 20
104.56657172309026
 30
0.0
 10
98.244821506076377
 20
104.22619628906249
 30
0.0
 10
98.264458550347214
 20
103.84241265190971
 30
0.0
 10
98.437402343749994
 20
103.42727864583333
 30
0.0
 10
98.887504069010404
 20
103.19990234375
 30
0.0
 10
99.324342176649296
 20
103.30738932291666
 30
0.0
  0
POLYLINE
  5
151
100
AcDbEntity
  8
0
 62
     7
100
AcDb2dPolyline
 66
     1
 10
0.0
 20
0.0
 30
0.0
  0
VERTEX
  5
152
100
AcDbEntity
  8
0
 62
     7
100
AcDbVertex
100
AcDb2dVertex
 10
118.280808
 20
100.799015
 30
0.0
  0
VERTEX
  5
153
100
AcDbEntity
  8
0
 62
     7
100
AcDbVertex
100
AcDb2dVertex
 10
118.791371
 20
98.893877
 30
0.0
  0
VERTEX
  5
154
100
AcDbEntity
  8
0
 62
     7
100
AcDbVertex
100
AcDb2dVertex
 10
119.301934
 20
100.799015
 30
0.0
  0
SEQEND
  5
155
100
AcDbEntity
  8
0
 62
     7
  0
POLYLINE
  5
14C
100
AcDbEntity
  8
0
 62
     7
100
AcDb2dPolyline
 66
     1
 10
0.0
 20
0.0
 30
0.0
  0
VERTEX
  5
14D
100
AcDbEntity
  8
0
 62
     7
100
AcDbVertex
100
AcDb2dVertex
 10
118.277363
 20
107.529009
 30
0.0
  0
VERTEX
  5
14E
100
AcDbEntity
  8
0
 62
     7
100
AcDbVertex
100
AcDb2dVertex
 10
118.787926
 20
109.434147
 30
0.0
  0
VERTEX
  5
14F
100
AcDbEntity
  8
0
 62
     7
100
AcDbVertex
100
AcDb2dVertex
 10
119.298145
 20
107.529009
 30
0.0
  0
SEQEND
  5
150
100
AcDbEntity
  8
0
 62
     7
  0
MTEXT
  5
14B
100
AcDbEntity
  8
0
 62
     7
100
AcDbMText
 10
115.548165
 20
100.710821
 30
0.0
 40
2.602419
 41
0.0
 71
     1
 72
     2
  1
\W0.50;\fMS Gothic|b0|i0|c128;(80)
  7
STD
210
0.0
220
0.0
230
1.0
 11
0.0
 21
1.0
 31
0.0
 73
     1
 44
1.0
  0
SPLINE
  5
14A
100
AcDbEntity
  8
0
 62
     7
100
AcDbSpline
210
0.0
220
0.0
230
1.0
 70
     8
 71
     3
 72
    17
 73
    13
 74
     0
 42
0.00000001
 43
0.00000001
 40
0.0
 40
0.0
 40
0.0
 40
0.0
 40
1.0
 40
1.0
 40
1.0
 40
2.0
 40
2.0
 40
2.0
 40
3.0
 40
3.0
 40
3.0
 40
4.0
 40
4.0
 40
4.0
 40
4.0
 10
126.93385416666665
 20
103.30738932291666
 30
0.0
 10
127.17466634114582
 20
103.46379665798611
 30
0.0
 10
127.31281467013888
 20
103.73733723958333
 30
0.0
 10
127.29558919270832
 20
104.02396918402776
 30
0.0
 10
127.21773003472221
 20
104.4001736111111
 30
0.0
 10
126.87735460069443
 20
104.6637234157986
 30
0.0
 10
126.49357096354166
 20
104.64443088107637
 30
0.0
 10
126.11736653645832
 20
104.56657172309026
 30
0.0
 10
125.85450575086804
 20
104.22619628906249
 30
0.0
 10
125.87414279513888
 20
103.84241265190971
 30
0.0
 10
126.04708658854166
 20
103.42727864583333
 30
0.0
 10
126.49701605902777
 20
103.19990234375
 30
0.0
 10
126.93385416666665
 20
103.30738932291666
 30
0.0
  0
LINE
  5
149
100
AcDbEntity
  8
0
 62
     7
100
AcDbLine
 10
118.791371
 20
98.893877
 30
0.0
 11
118.791371
 21
109.677371
 31
0.0
  0
MTEXT
  5
148
100
AcDbEntity
  8
0
 62
     7
100
AcDbMText
 10
121.572252
 20
116.609241
 30
0.0
 40
2.602419
 41
0.0
 71
     1
 72
     2
  1
\W0.50;\fMS Gothic|b0|i0|c128;溶接金網
  7
KANJISTD
210
0.0
220
0.0
230
1.0
 11
1.000001
 21
0.0
 31
0.0
 73
     1
 44
1.0
  0
MTEXT
  5
147
100
AcDbEntity
  8
0
 62
     7
100
AcDbMText
 10
126.635853
 20
121.054448
 30
0.0
 40
2.602419
 41
0.0
 71
     1
 72
     2
  1
\W0.50;\fMS Gothic|b0|i0|c128;伸縮目地
  7
KANJISTD
210
0.0
220
0.0
230
1.0
 11
1.000001
 21
0.0
 31
0.0
 73
     1
 44
1.0
  0
POLYLINE
  5
142
100
AcDbEntity
  8
0
 62
     7
100
AcDb2dPolyline
 66
     1
 10
0.0
 20
0.0
 30
0.0
  0
VERTEX
  5
143
100
AcDbEntity
  8
0
 62
     7
100
AcDbVertex
100
AcDb2dVertex
 10
74.436111
 20
136.877778
 30
0.0
  0
VERTEX
  5
144
100
AcDbEntity
  8
0
 62
     7
100
AcDbVertex
100
AcDb2dVertex
 10
89.78849
 20
158.815629
 30
0.0
  0
VERTEX
  5
145
100
AcDbEntity
  8
0
 62
     7
100
AcDbVertex
100
AcDb2dVertex
 10
92.030558
 20
158.815629
 30
0.0
  0
SEQEND
  5
146
100
AcDbEntity
  8
0
 62
     7
  0
LINE
  5
141
100
AcDbEntity
  8
0
 62
     7
100
AcDbLine
 10
76.508681
 20
166.939336
 30
0.0
 11
91.931512
 21
166.939336
 31
0.0
  0
SPLINE
  5
140
100
AcDbEntity
  8
0
 62
     7
100
AcDbSpline
210
0.0
220
0.0
230
1.0
 70
     8
 71
     3
 72
    17
 73
    13
 74
     0
 42
0.00000001
 43
0.00000001
 40
0.0
 40
0.0
 40
0.0
 40
0.0
 40
1.0
 40
1.0
 40
1.0
 40
2.0
 40
2.0
 40
2.0
 40
3.0
 40
3.0
 40
3.0
 40
4.0
 40
4.0
 40
4.0
 40
4.0
 10
74.377199978298606
 20
136.25456000434028
 30
0.0
 10
74.452992078993049
 20
136.32277289496525
 30
0.0
 10
74.496744791666657
 20
136.41958007812499
 30
0.0
 10
74.497778320312491
 20
136.52155490451386
 30
0.0
 10
74.496572536892359
 20
136.71895887586805
 30
0.0
 10
74.336892361111111
 20
136.87881130642359
 30
0.0
 10
74.139488389756934
 20
136.88053385416666
 30
0.0
 10
73.942084418402771
 20
136.87881130642359
 30
0.0
 10
73.782576497395823
 20
136.71895887586805
 30
0.0
 10
73.781198459201377
 20
136.52155490451386
 30
0.0
 10
73.873527018229154
 20
136.28453233506943
 30
0.0
 10
74.138971625434024
 20
136.16567654079859
 30
0.0
 10
74.377199978298606
 20
136.25456000434028
 30
0.0
  0
LINE
  5
13F
100
AcDbEntity
  8
0
 62
     7
100
AcDbLine
 10
59.78033
 20
167.350853
 30
0.0
 11
67.868553
 21
167.350853
 31
0.0
  0
LINE
  5
13E
100
AcDbEntity
  8
0
 62
     7
100
AcDbLine
 10
65.006368
 20
172.703153
 30
0.0
 11
66.935449
 21
174.633096
 31
0.0
  0
LINE
  5
13D
100
AcDbEntity
  8
0
 62
     7
100
AcDbLine
 10
65.093357
 20
174.095489
 30
0.0
 11
66.254354
 21
175.256314
 31
0.0
  0
LINE
  5
13C
100
AcDbEntity
  8
0
 62
     7
100
AcDbLine
 10
65.151407
 20
175.341752
 30
0.0
 11
65.717952
 21
175.90847
 31
0.0
  0
LINE
  5
13B
100
AcDbEntity
  8
0
 62
     7
100
AcDbLine
 10
69.708579
 20
171.814319
 30
0.0
 11
65.101625
 21
176.408009
 31
0.0
  0
SPLINE
  5
13A
100
AcDbEntity
  8
0
 62
     7
100
AcDbSpline
210
0.0
220
0.0
230
1.0
 70
     8
 71
     3
 72
    17
 73
    13
 74
     0
 42
0.00000001
 43
0.00000001
 40
0.0
 40
0.0
 40
0.0
 40
0.0
 40
1.0
 40
1.0
 40
1.0
 40
2.0
 40
2.0
 40
2.0
 40
3.0
 40
3.0
 40
3.0
 40
4.0
 40
4.0
 40
4.0
 40
4.0
 10
66.048853895399304
 20
184.21614583333331
 30
0.0
 10
65.851449924045127
 20
184.21786838107639
 30
0.0
 10
65.691942003038193
 20
184.37772081163192
 30
0.0
 10
65.690736219618046
 20
184.57512478298608
 30
0.0
 10
65.782720269097211
 20
184.81249186197914
 30
0.0
 10
66.047992621527769
 20
184.93186442057291
 30
0.0
 10
66.286565483940961
 20
184.84332546657984
 30
0.0
 10
66.362529839409717
 20
184.77476806640624
 30
0.0
 10
66.406282552083326
 20
184.6774441189236
 30
0.0
 10
66.407143825954861
 20
184.57512478298608
 30
0.0
 10
66.405938042534714
 20
184.37772081163192
 30
0.0
 10
66.246430121527766
 20
184.21786838107639
 30
0.0
 10
66.048853895399304
 20
184.21614583333331
 30
0.0
  0
POLYLINE
  5
135
100
AcDbEntity
  8
0
 62
     7
100
AcDb2dPolyline
 66
     1
 10
0.0
 20
0.0
 30
0.0
  0
VERTEX
  5
136
100
AcDbEntity
  8
0
 62
     7
100
AcDbVertex
100
AcDb2dVertex
 10
67.382106
 20
168.505132
 30
0.0
  0
VERTEX
  5
137
100
AcDbEntity
  8
0
 62
     7
100
AcDbVertex
100
AcDb2dVertex
 10
62.851633
 20
176.527726
 30
0.0
  0
VERTEX
  5
138
100
AcDbEntity
  8
0
 62
     7
100
AcDbVertex
100
AcDb2dVertex
 10
60.609565
 20
176.527726
 30
0.0
  0
SEQEND
  5
139
100
AcDbEntity
  8
0
 62
     7
  0
LINE
  5
134
100
AcDbEntity
  8
0
 62
     7
100
AcDbLine
 10
57.839536
 20
180.90317
 30
0.0
 11
65.927759
 21
180.90317
 31
0.0
  0
POLYLINE
  5
12D
100
AcDbEntity
  8
0
 62
     7
100
AcDb2dPolyline
 66
     1
 10
0.0
 20
0.0
 30
0.0
  0
VERTEX
  5
12E
100
AcDbEntity
  8
0
 62
     7
100
AcDbVertex
100
AcDb2dVertex
 10
67.506129
 20
183.211728
 30
0.0
  0
VERTEX
  5
12F
100
AcDbEntity
  8
0
 62
     7
100
AcDbVertex
100
AcDb2dVertex
 10
65.612188
 20
183.211728
 30
0.0
  0
VERTEX
  5
130
100
AcDbEntity
  8
0
 62
     7
100
AcDbVertex
100
AcDb2dVertex
 10
65.612188
 20
177.968637
 30
0.0
  0
VERTEX
  5
131
100
AcDbEntity
  8
0
 62
     7
100
AcDbVertex
100
AcDb2dVertex
 10
75.867721
 20
174.713194
 30
0.0
  0
VERTEX
  5
132
100
AcDbEntity
  8
0
 62
     7
100
AcDbVertex
100
AcDb2dVertex
 10
75.867721
 20
166.953806
 30
0.0
  0
SEQEND
  5
133
100
AcDbEntity
  8
0
 62
     7
  0
MTEXT
  5
12C
100
AcDbEntity
  8
0
 62
     7
100
AcDbMText
 10
49.168403
 20
159.714104
 30
0.0
 40
2.602419
 41
0.0
 71
     1
 72
     2
  1
\W0.50;\fMS Gothic|b0|i0|c128;(180)
  7
STD
210
0.0
220
0.0
230
1.0
 11
1.000001
 21
0.0
 31
0.0
 73
     1
 44
1.0
  0
POLYLINE
  5
127
100
AcDbEntity
  8
0
 62
     7
100
AcDb2dPolyline
 66
     1
 10
0.0
 20
0.0
 30
0.0
  0
VERTEX
  5
128
100
AcDbEntity
  8
0
 62
     7
100
AcDbVertex
100
AcDb2dVertex
 10
62.975829
 20
156.250583
 30
0.0
  0
VERTEX
  5
129
100
AcDbEntity
  8
0
 62
     7
100
AcDbVertex
100
AcDb2dVertex
 10
64.880622
 20
156.76063
 30
0.0
  0
VERTEX
  5
12A
100
AcDbEntity
  8
0
 62
     7
100
AcDbVertex
100
AcDb2dVertex
 10
62.975829
 20
157.270676
 30
0.0
  0
SEQEND
  5
12B
100
AcDbEntity
  8
0
 62
     7
  0
POLYLINE
  5
122
100
AcDbEntity
  8
0
 62
     7
100
AcDb2dPolyline
 66
     1
 10
0.0
 20
0.0
 30
0.0
  0
VERTEX
  5
123
100
AcDbEntity
  8
0
 62
     7
100
AcDbVertex
100
AcDb2dVertex
 10
69.700138
 20
171.749896
 30
0.0
  0
VERTEX
  5
124
100
AcDbEntity
  8
0
 62
     7
100
AcDbVertex
100
AcDb2dVertex
 10
67.576926
 20
171.749896
 30
0.0
  0
VERTEX
  5
125
100
AcDbEntity
  8
0
 62
     7
100
AcDbVertex
100
AcDb2dVertex
 10
67.576926
 20
163.256702
 30
0.0
  0
SEQEND
  5
126
100
AcDbEntity
  8
0
 62
     7
  0
LINE
  5
121
100
AcDbEntity
  8
0
 62
     7
100
AcDbLine
 10
72.742158
 20
175.683333
 30
0.0
 11
72.742158
 21
166.953806
 31
0.0
  0
SPLINE
  5
120
100
AcDbEntity
  8
0
 62
     7
100
AcDbSpline
210
0.0
220
0.0
230
1.0
 70
     8
 71
     3
 72
    17
 73
    13
 74
     0
 42
0.00000001
 43
0.00000001
 40
0.0
 40
0.0
 40
0.0
 40
0.0
 40
1.0
 40
1.0
 40
1.0
 40
2.0
 40
2.0
 40
2.0
 40
3.0
 40
3.0
 40
3.0
 40
4.0
 40
4.0
 40
4.0
 40
4.0
 10
67.547125922309021
 20
168.824664984809
 30
0.0
 10
67.349549696180546
 20
168.82294243706596
 30
0.0
 10
67.190041775173611
 20
168.6630900065104
 30
0.0
 10
67.188663736979166
 20
168.46568603515624
 30
0.0
 10
67.28082004123263
 20
168.22849121093748
 30
0.0
 10
67.5462646484375
 20
168.10894639756944
 30
0.0
 10
67.784837510850693
 20
168.19748535156248
 30
0.0
 10
67.860801866319434
 20
168.26604275173611
 30
0.0
 10
67.904554578993043
 20
168.36336669921874
 30
0.0
 10
67.905415852864579
 20
168.46568603515624
 30
0.0
 10
67.904037814670133
 20
168.6630900065104
 30
0.0
 10
67.744529893663184
 20
168.82294243706596
 30
0.0
 10
67.547125922309021
 20
168.824664984809
 30
0.0
  0
LINE
  5
11F
100
AcDbEntity
  8
0
 62
     7
100
AcDbLine
 10
65.615461
 20
171.998459
 30
0.0
 11
67.534896
 21
173.917894
 31
0.0
  0
LINE
  5
11E
100
AcDbEntity
  8
0
 62
     7
100
AcDbLine
 10
66.511013
 20
171.579019
 30
0.0
 11
68.198766
 21
173.267116
 31
0.0
  0
LINE
  5
11D
100
AcDbEntity
  8
0
 62
     7
100
AcDbLine
 10
68.022032
 20
171.774873
 30
0.0
 11
68.827151
 21
172.579475
 31
0.0
  0
SPLINE
  5
11C
100
AcDbEntity
  8
0
 62
     7
100
AcDbSpline
210
0.0
220
0.0
230
1.0
 70
     8
 71
     3
 72
    17
 73
    13
 74
     0
 42
0.00000001
 43
0.00000001
 40
0.0
 40
0.0
 40
0.0
 40
0.0
 40
1.0
 40
1.0
 40
1.0
 40
2.0
 40
2.0
 40
2.0
 40
3.0
 40
3.0
 40
3.0
 40
4.0
 40
4.0
 40
4.0
 40
4.0
 10
66.077964952256934
 20
173.43282470703124
 30
0.0
 10
65.880388726128473
 20
173.43437499999999
 30
0.0
 10
65.720880805121524
 20
173.59422743055555
 30
0.0
 10
65.719675021701377
 20
173.79163140190971
 30
0.0
 10
65.811659071180543
 20
174.02899848090277
 30
0.0
 10
66.0769314236111
 20
174.14837103949651
 30
0.0
 10
66.315676540798606
 20
174.05983208550344
 30
0.0
 10
66.391640896267361
 20
173.99127468532984
 30
0.0
 10
66.43539360894097
 20
173.8941229926215
 30
0.0
 10
66.436254882812491
 20
173.79163140190971
 30
0.0
 10
66.435049099392359
 20
173.59422743055555
 30
0.0
 10
66.275368923611111
 20
173.43437499999999
 30
0.0
 10
66.077964952256934
 20
173.43282470703124
 30
0.0
  0
LINE
  5
11B
100
AcDbEntity
  8
0
 62
     7
100
AcDbLine
 10
66.694637
 20
183.418262
 30
0.0
 11
67.216569
 21
183.940194
 31
0.0
  0
SPLINE
  5
11A
100
AcDbEntity
  8
0
 62
     7
100
AcDbSpline
210
0.0
220
0.0
230
1.0
 70
     8
 71
     3
 72
    17
 73
    13
 74
     0
 42
0.00000001
 43
0.00000001
 40
0.0
 40
0.0
 40
0.0
 40
0.0
 40
1.0
 40
1.0
 40
1.0
 40
2.0
 40
2.0
 40
2.0
 40
3.0
 40
3.0
 40
3.0
 40
4.0
 40
4.0
 40
4.0
 40
4.0
 10
76.619612630208323
 20
174.93006320529511
 30
0.0
 10
76.695576985677079
 20
174.99862060546874
 30
0.0
 10
76.739329698350687
 20
175.09594455295138
 30
0.0
 10
76.74001871744791
 20
175.19826388888887
 30
0.0
 10
76.738640679253464
 20
175.39532335069444
 30
0.0
 10
76.578960503472217
 20
175.55465901692708
 30
0.0
 10
76.381901041666666
 20
175.55586480034719
 30
0.0
 10
76.1848415798611
 20
175.55465901692708
 30
0.0
 10
76.025161404079853
 20
175.39532335069444
 30
0.0
 10
76.023611111111109
 20
175.19826388888887
 30
0.0
 10
76.115595160590274
 20
174.96089680989581
 30
0.0
 10
76.38103976779513
 20
174.84152425130208
 30
0.0
 10
76.619612630208323
 20
174.93006320529511
 30
0.0
  0
MTEXT
  5
119
100
AcDbEntity
  8
0
 62
     7
100
AcDbMText
 10
89.394371
 20
141.963766
 30
0.0
 40
2.602419
 41
0.0
 71
     1
 72
     2
  1
\W0.50;\fMS Gothic|b0|i0|c128;成形緩衝材
  7
KANJISTD
210
0.0
220
0.0
230
1.0
 11
1.000001
 21
0.0
 31
0.0
 73
     1
 44
1.0
  0
MTEXT
  5
118
100
AcDbEntity
  8
0
 62
     7
100
AcDbMText
 10
93.541749
 20
132.750202
 30
0.0
 40
2.602419
 41
0.0
 71
     1
 72
     2
  1
\W0.50;\fMS Gothic|b0|i0|c128;下部ホルダー
  7
KANJISTD
210
0.0
220
0.0
230
1.0
 11
1.000001
 21
0.0
 31
0.0
 73
     1
 44
1.0
  0
POLYLINE
  5
113
100
AcDbEntity
  8
0
 62
     7
100
AcDb2dPolyline
 66
     1
 10
0.0
 20
0.0
 30
0.0
  0
VERTEX
  5
114
100
AcDbEntity
  8
0
 62
     7
100
AcDbVertex
100
AcDb2dVertex
 10
91.394766
 20
171.431741
 30
0.0
  0
VERTEX
  5
115
100
AcDbEntity
  8
0
 62
     7
100
AcDbVertex
100
AcDb2dVertex
 10
91.904985
 20
169.526603
 30
0.0
  0
VERTEX
  5
116
100
AcDbEntity
  8
0
 62
     7
100
AcDbVertex
100
AcDb2dVertex
 10
92.415548
 20
171.431741
 30
0.0
  0
SEQEND
  5
117
100
AcDbEntity
  8
0
 62
     7
  0
LINE
  5
112
100
AcDbEntity
  8
0
 62
     7
100
AcDbLine
 10
91.886726
 20
169.70282
 30
0.0
 11
91.886726
 21
183.076336
 31
0.0
  0
LINE
  5
111
100
AcDbEntity
  8
0
 62
     7
100
AcDbLine
 10
91.931512
 20
169.605668
 30
0.0
 11
91.931512
 21
161.980122
 31
0.0
  0
MTEXT
  5
110
100
AcDbEntity
  8
0
 62
     7
100
AcDbMText
 10
92.279983
 20
159.990228
 30
0.0
 40
2.602419
 41
0.0
 71
     1
 72
     2
  1
\W0.50;\fMS Gothic|b0|i0|c128;ボード
  7
KANJISTD
210
0.0
220
0.0
230
1.0
 11
1.000001
 21
0.0
 31
0.0
 73
     1
 44
1.0
  0
POLYLINE
  5
10B
100
AcDbEntity
  8
0
 62
     7
100
AcDb2dPolyline
 66
     1
 10
0.0
 20
0.0
 30
0.0
  0
VERTEX
  5
10C
100
AcDbEntity
  8
0
 62
     7
100
AcDbVertex
100
AcDb2dVertex
 10
92.447932
 20
165.219545
 30
0.0
  0
VERTEX
  5
10D
100
AcDbEntity
  8
0
 62
     7
100
AcDbVertex
100
AcDb2dVertex
 10
91.937541
 20
167.123305
 30
0.0
  0
VERTEX
  5
10E
100
AcDbEntity
  8
0
 62
     7
100
AcDbVertex
100
AcDb2dVertex
 10
91.42715
 20
165.219545
 30
0.0
  0
SEQEND
  5
10F
100
AcDbEntity
  8
0
 62
     7
  0
MTEXT
  5
10A
100
AcDbEntity
  8
0
 62
     7
100
AcDbMText
 10
88.618198
 20
172.408598
 30
0.0
 40
2.602419
 41
0.0
 71
     1
 72
     2
  1
\W0.50;\fMS Gothic|b0|i0|c128;10程度
  7
KANJISTD
210
0.0
220
0.0
230
1.0
 11
0.0
 21
1.0
 31
0.0
 73
     1
 44
1.0
  0
LINE
  5
109
100
AcDbEntity
  8
0
 62
     7
100
AcDbLine
 10
158.482316
 20
169.36899
 30
0.0
 11
158.482316
 21
109.285664
 31
0.0
  0
MTEXT
  5
108
100
AcDbEntity
  8
0
 62
     7
100
AcDbMText
 10
176.156345
 20
128.320843
 30
0.0
 40
2.602419
 41
0.0
 71
     1
 72
     2
  1
\W0.50;\fMS Gothic|b0|i0|c128;断熱材
  7
KANJISTD
210
0.0
220
0.0
230
1.0
 11
1.000001
 21
0.0
 31
0.0
 73
     1
 44
1.0
  0
MTEXT
  5
107
100
AcDbEntity
  8
0
 62
     7
100
AcDbMText
 10
155.312835
 20
124.412733
 30
0.0
 40
2.602419
 41
0.0
 71
     1
 72
     2
  1
\W0.50;\fMS Gothic|b0|i0|c128;乾式保護工法 600以下
  7
KANJISTD
210
0.0
220
0.0
230
1.0
 11
0.0
 21
1.0
 31
0.0
 73
     1
 44
1.0
  0
POLYLINE
  5
102
100
AcDbEntity
  8
0
 62
     7
100
AcDb2dPolyline
 66
     1
 10
0.0
 20
0.0
 30
0.0
  0
VERTEX
  5
103
100
AcDbEntity
  8
0
 62
     7
100
AcDbVertex
100
AcDb2dVertex
 10
172.899007
 20
94.456595
 30
0.0
  0
VERTEX
  5
104
100
AcDbEntity
  8
0
 62
     7
100
AcDbVertex
100
AcDb2dVertex
 10
172.899007
 20
137.806231
 30
0.0
  0
VERTEX
  5
105
100
AcDbEntity
  8
0
 62
     7
100
AcDbVertex
100
AcDb2dVertex
 10
175.218245
 20
137.806231
 30
0.0
  0
SEQEND
  5
106
100
AcDbEntity
  8
0
 62
     7
  0
LINE
  5
101
100
AcDbEntity
  8
0
 62
     7
100
AcDbLine
 10
183.371408
 20
103.157528
 30
0.0
 11
146.11339
 21
103.157528
 31
0.0
  0
LINE
  5
100
100
AcDbEntity
  8
0
 62
     7
100
AcDbLine
 10
183.443755
 20
71.819561
 30
0.0
 11
161.718639
 21
93.544333
 31
0.0
  0
LINE
  5
FF
100
AcDbEntity
  8
0
 62
     7
100
AcDbLine
 10
183.404826
 20
70.542809
 30
0.0
 11
160.423627
 21
93.524352
 31
0.0
  0
LINE
  5
FE
100
AcDbEntity
  8
0
 62
     7
100
AcDbLine
 10
183.39518
 20
69.23884
 30
0.0
 11
159.099333
 21
93.533653
 31
0.0
  0
LINE
  5
FD
100
AcDbEntity
  8
0
 62
     7
100
AcDbLine
 10
168.181638
 20
98.854603
 30
0.0
 11
171.341479
 21
95.695106
 31
0.0
  0
LINE
  5
FC
100
AcDbEntity
  8
0
 62
     7
100
AcDbLine
 10
171.390744
 20
98.854603
 30
0.0
 11
168.230903
 21
95.695106
 31
0.0
  0
LINE
  5
FB
100
AcDbEntity
  8
0
 62
     7
100
AcDbLine
 10
170.811279
 20
98.854603
 30
0.0
 11
173.970776
 21
95.695106
 31
0.0
  0
LINE
  5
FA
100
AcDbEntity
  8
0
 62
     7
100
AcDbLine
 10
174.020041
 20
98.854603
 30
0.0
 11
170.860544
 21
95.695106
 31
0.0
  0
LINE
  5
F9
100
AcDbEntity
  8
0
 62
     7
100
AcDbLine
 10
131.36907
 20
98.854603
 30
0.0
 11
134.528912
 21
95.695106
 31
0.0
  0
LINE
  5
F8
100
AcDbEntity
  8
0
 62
     7
100
AcDbLine
 10
134.577832
 20
98.854603
 30
0.0
 11
131.418335
 21
95.695106
 31
0.0
  0
LINE
  5
F7
100
AcDbEntity
  8
0
 62
     7
100
AcDbLine
 10
133.998367
 20
98.854603
 30
0.0
 11
137.158209
 21
95.695106
 31
0.0
  0
LINE
  5
F6
100
AcDbEntity
  8
0
 62
     7
100
AcDbLine
 10
137.207473
 20
98.854603
 30
0.0
 11
134.047976
 21
95.695106
 31
0.0
  0
LINE
  5
F5
100
AcDbEntity
  8
0
 62
     7
100
AcDbLine
 10
136.628008
 20
98.854603
 30
0.0
 11
139.78785
 21
95.695106
 31
0.0
  0
LINE
  5
F4
100
AcDbEntity
  8
0
 62
     7
100
AcDbLine
 10
139.837115
 20
98.854603
 30
0.0
 11
136.677273
 21
95.695106
 31
0.0
  0
LINE
  5
F3
100
AcDbEntity
  8
0
 62
     7
100
AcDbLine
 10
139.25765
 20
98.854603
 30
0.0
 11
142.417491
 21
95.695106
 31
0.0
  0
LINE
  5
F2
100
AcDbEntity
  8
0
 62
     7
100
AcDbLine
 10
142.466412
 20
98.854603
 30
0.0
 11
139.30657
 21
95.695106
 31
0.0
  0
LINE
  5
F1
100
AcDbEntity
  8
0
 62
     7
100
AcDbLine
 10
141.886947
 20
98.854603
 30
0.0
 11
145.046788
 21
95.695106
 31
0.0
  0
LINE
  5
F0
100
AcDbEntity
  8
0
 62
     7
100
AcDbLine
 10
145.096053
 20
98.854603
 30
0.0
 11
141.936211
 21
95.695106
 31
0.0
  0
LINE
  5
EF
100
AcDbEntity
  8
0
 62
     7
100
AcDbLine
 10
144.516588
 20
98.854603
 30
0.0
 11
147.676085
 21
95.695106
 31
0.0
  0
LINE
  5
EE
100
AcDbEntity
  8
0
 62
     7
100
AcDbLine
 10
147.72535
 20
98.854603
 30
0.0
 11
144.565853
 21
95.695106
 31
0.0
  0
LINE
  5
ED
100
AcDbEntity
  8
0
 62
     7
100
AcDbLine
 10
147.145885
 20
98.854603
 30
0.0
 11
150.305726
 21
95.695106
 31
0.0
  0
LINE
  5
EC
100
AcDbEntity
  8
0
 62
     7
100
AcDbLine
 10
150.354991
 20
98.854603
 30
0.0
 11
147.19515
 21
95.695106
 31
0.0
  0
LINE
  5
EB
100
AcDbEntity
  8
0
 62
     7
100
AcDbLine
 10
149.775526
 20
98.854603
 30
0.0
 11
152.935023
 21
95.695106
 31
0.0
  0
LINE
  5
EA
100
AcDbEntity
  8
0
 62
     7
100
AcDbLine
 10
152.984288
 20
98.854603
 30
0.0
 11
149.824791
 21
95.695106
 31
0.0
  0
LINE
  5
E9
100
AcDbEntity
  8
0
 62
     7
100
AcDbLine
 10
152.404823
 20
98.854603
 30
0.0
 11
155.564665
 21
95.695106
 31
0.0
  0
LINE
  5
E8
100
AcDbEntity
  8
0
 62
     7
100
AcDbLine
 10
155.613585
 20
98.854603
 30
0.0
 11
152.454433
 21
95.695106
 31
0.0
  0
LINE
  5
E7
100
AcDbEntity
  8
0
 62
     7
100
AcDbLine
 10
155.034465
 20
98.854603
 30
0.0
 11
158.194306
 21
95.695106
 31
0.0
  0
LINE
  5
E6
100
AcDbEntity
  8
0
 62
     7
100
AcDbLine
 10
158.243226
 20
98.854603
 30
0.0
 11
155.083729
 21
95.695106
 31
0.0
  0
LINE
  5
E5
100
AcDbEntity
  8
0
 62
     7
100
AcDbLine
 10
157.664106
 20
98.854603
 30
0.0
 11
160.823603
 21
95.695106
 31
0.0
  0
LINE
  5
E4
100
AcDbEntity
  8
0
 62
     7
100
AcDbLine
 10
160.872868
 20
98.854603
 30
0.0
 11
157.713026
 21
95.695106
 31
0.0
  0
LINE
  5
E3
100
AcDbEntity
  8
0
 62
     7
100
AcDbLine
 10
160.293403
 20
98.854603
 30
0.0
 11
163.4529
 21
95.695106
 31
0.0
  0
LINE
  5
E2
100
AcDbEntity
  8
0
 62
     7
100
AcDbLine
 10
163.502509
 20
98.854603
 30
0.0
 11
160.342668
 21
95.695106
 31
0.0
  0
LINE
  5
E1
100
AcDbEntity
  8
0
 62
     7
100
AcDbLine
 10
162.9227
 20
98.854603
 30
0.0
 11
166.082541
 21
95.695106
 31
0.0
  0
LINE
  5
E0
100
AcDbEntity
  8
0
 62
     7
100
AcDbLine
 10
166.131806
 20
98.854603
 30
0.0
 11
162.972309
 21
95.695106
 31
0.0
  0
LINE
  5
DF
100
AcDbEntity
  8
0
 62
     7
100
AcDbLine
 10
165.552341
 20
98.854603
 30
0.0
 11
168.711838
 21
95.695106
 31
0.0
  0
LINE
  5
DE
100
AcDbEntity
  8
0
 62
     7
100
AcDbLine
 10
168.761447
 20
98.854603
 30
0.0
 11
165.601606
 21
95.695106
 31
0.0
  0
LINE
  5
DD
100
AcDbEntity
  8
0
 62
     7
100
AcDbLine
 10
159.682587
 20
69.084844
 30
0.0
 11
135.222754
 21
93.544333
 31
0.0
  0
LINE
  5
DC
100
AcDbEntity
  8
0
 62
     7
100
AcDbLine
 10
158.175014
 20
69.276736
 30
0.0
 11
133.927398
 21
93.524352
 31
0.0
  0
LINE
  5
DB
100
AcDbEntity
  8
0
 62
     7
100
AcDbLine
 10
156.899295
 20
69.23884
 30
0.0
 11
132.603448
 21
93.533653
 31
0.0
  0
POLYLINE
  5
D6
100
AcDbEntity
  8
0
 62
     7
100
AcDb2dPolyline
 66
     1
 10
0.0
 20
0.0
 30
0.0
  0
VERTEX
  5
D7
100
AcDbEntity
  8
0
 62
     7
100
AcDbVertex
100
AcDb2dVertex
 10
141.29129
 20
79.058396
 30
0.0
  0
VERTEX
  5
D8
100
AcDbEntity
  8
0
 62
     7
100
AcDbVertex
100
AcDb2dVertex
 10
143.196083
 20
79.568614
 30
0.0
  0
VERTEX
  5
D9
100
AcDbEntity
  8
0
 62
     7
100
AcDbVertex
100
AcDb2dVertex
 10
141.29129
 20
80.078833
 30
0.0
  0
SEQEND
  5
DA
100
AcDbEntity
  8
0
 62
     7
  0
SPLINE
  5
D5
100
AcDbEntity
  8
0
 62
     7
100
AcDbSpline
210
0.0
220
0.0
230
1.0
 70
     8
 71
     3
 72
    17
 73
    13
 74
     0
 42
0.00000001
 43
0.00000001
 40
0.0
 40
0.0
 40
0.0
 40
0.0
 40
1.0
 40
1.0
 40
1.0
 40
2.0
 40
2.0
 40
2.0
 40
3.0
 40
3.0
 40
3.0
 40
4.0
 40
4.0
 40
4.0
 40
4.0
 10
150.83179253472221
 20
103.27845052083332
 30
0.0
 10
151.07260470920139
 20
103.43485785590276
 30
0.0
 10
151.21075303819444
 20
103.70839843749999
 30
0.0
 10
151.19352756076387
 20
103.99503038194443
 30
0.0
 10
151.11566840277777
 20
104.37157931857638
 30
0.0
 10
150.77494845920137
 20
104.63478461371527
 30
0.0
 10
150.39116482204861
 20
104.61549207899304
 30
0.0
 10
150.01530490451387
 20
104.53763292100693
 30
0.0
 10
149.75209960937499
 20
104.19725748697915
 30
0.0
 10
149.77173665364583
 20
103.81347384982638
 30
0.0
 10
149.9446804470486
 20
103.39833984374999
 30
0.0
 10
150.39495442708332
 20
103.17096354166665
 30
0.0
 10
150.83179253472221
 20
103.27845052083332
 30
0.0
  0
POLYLINE
  5
D0
100
AcDbEntity
  8
0
 62
     7
100
AcDb2dPolyline
 66
     1
 10
0.0
 20
0.0
 30
0.0
  0
VERTEX
  5
D1
100
AcDbEntity
  8
0
 62
     7
100
AcDbVertex
100
AcDb2dVertex
 10
142.974908
 20
107.828733
 30
0.0
  0
VERTEX
  5
D2
100
AcDbEntity
  8
0
 62
     7
100
AcDbVertex
100
AcDb2dVertex
 10
136.240435
 20
119.623362
 30
0.0
  0
VERTEX
  5
D3
100
AcDbEntity
  8
0
 62
     7
100
AcDbVertex
100
AcDb2dVertex
 10
134.827946
 20
119.623362
 30
0.0
  0
SEQEND
  5
D4
100
AcDbEntity
  8
0
 62
     7
  0
POLYLINE
  5
CB
100
AcDbEntity
  8
0
 62
     7
100
AcDb2dPolyline
 66
     1
 10
0.0
 20
0.0
 30
0.0
  0
VERTEX
  5
CC
100
AcDbEntity
  8
0
 62
     7
100
AcDbVertex
100
AcDb2dVertex
 10
138.540036
 20
103.654655
 30
0.0
  0
VERTEX
  5
CD
100
AcDbEntity
  8
0
 62
     7
100
AcDbVertex
100
AcDb2dVertex
 10
131.804875
 20
115.448939
 30
0.0
  0
VERTEX
  5
CE
100
AcDbEntity
  8
0
 62
     7
100
AcDbVertex
100
AcDb2dVertex
 10
130.39273
 20
115.448939
 30
0.0
  0
SEQEND
  5
CF
100
AcDbEntity
  8
0
 62
     7
  0
POLYLINE
  5
C5
100
AcDbEntity
  8
0
 62
     7
100
AcDb2dPolyline
 66
     1
 10
0.0
 20
0.0
 30
0.0
  0
VERTEX
  5
C6
100
AcDbEntity
  8
0
 62
     7
100
AcDbVertex
100
AcDb2dVertex
 10
144.973408
 20
110.199303
 30
0.0
  0
VERTEX
  5
C7
100
AcDbEntity
  8
0
 62
     7
100
AcDbVertex
100
AcDb2dVertex
 10
144.973408
 20
112.451362
 30
0.0
  0
VERTEX
  5
C8
100
AcDbEntity
  8
0
 62
     7
100
AcDbVertex
100
AcDb2dVertex
 10
141.552772
 20
112.451362
 30
0.0
  0
VERTEX
  5
C9
100
AcDbEntity
  8
0
 62
     7
100
AcDbVertex
100
AcDb2dVertex
 10
141.552772
 20
110.199303
 30
0.0
  0
SEQEND
  5
CA
100
AcDbEntity
  8
0
 62
     7
  0
LINE
  5
C4
100
AcDbEntity
  8
0
 62
     7
100
AcDbLine
 10
129.377805
 20
109.614326
 30
0.0
 11
139.762701
 21
99.229085
 31
0.0
  0
LINE
  5
C3
100
AcDbEntity
  8
0
 62
     7
100
AcDbLine
 10
130.746197
 20
109.560238
 30
0.0
 11
141.086995
 21
99.219784
 31
0.0
  0
SPLINE
  5
C2
100
AcDbEntity
  8
0
 62
     7
100
AcDbSpline
210
0.0
220
0.0
230
1.0
 70
     8
 71
     3
 72
    17
 73
    13
 74
     0
 42
0.00000001
 43
0.00000001
 40
0.0
 40
0.0
 40
0.0
 40
0.0
 40
1.0
 40
1.0
 40
1.0
 40
2.0
 40
2.0
 40
2.0
 40
3.0
 40
3.0
 40
3.0
 40
4.0
 40
4.0
 40
4.0
 40
4.0
 10
136.13708224826388
 20
103.30738932291666
 30
0.0
 10
136.37789442274305
 20
103.46379665798611
 30
0.0
 10
136.51604275173611
 20
103.73733723958333
 30
0.0
 10
136.49881727430554
 20
104.02396918402776
 30
0.0
 10
136.42095811631944
 20
104.4001736111111
 30
0.0
 10
136.08058268229166
 20
104.6637234157986
 30
0.0
 10
135.69679904513887
 20
104.64443088107637
 30
0.0
 10
135.32059461805554
 20
104.56657172309026
 30
0.0
 10
135.05773383246526
 20
104.22619628906249
 30
0.0
 10
135.0773708767361
 20
103.84241265190971
 30
0.0
 10
135.25031467013886
 20
103.42727864583333
 30
0.0
 10
135.70024414062499
 20
103.19990234375
 30
0.0
 10
136.13708224826388
 20
103.30738932291666
 30
0.0
  0
SPLINE
  5
C1
100
AcDbEntity
  8
0
 62
     7
100
AcDbSpline
210
0.0
220
0.0
230
1.0
 70
     8
 71
     3
 72
    17
 73
    13
 74
     0
 42
0.00000001
 43
0.00000001
 40
0.0
 40
0.0
 40
0.0
 40
0.0
 40
1.0
 40
1.0
 40
1.0
 40
2.0
 40
2.0
 40
2.0
 40
3.0
 40
3.0
 40
3.0
 40
4.0
 40
4.0
 40
4.0
 40
4.0
 10
138.57724338107639
 20
103.24951171874999
 30
0.0
 10
138.39637586805554
 20
103.25088975694443
 30
0.0
 10
138.24995930989581
 20
103.39730631510416
 30
0.0
 10
138.24858127170137
 20
103.57817382812499
 30
0.0
 10
138.33746473524303
 20
103.79590386284721
 30
0.0
 10
138.58482259114581
 20
103.90201280381943
 30
0.0
 10
138.80393066406248
 20
103.81622992621527
 30
0.0
 10
138.86835394965277
 20
103.75352918836805
 30
0.0
 10
138.90487196180555
 20
103.66809082031249
 30
0.0
 10
138.90590549045137
 20
103.57817382812499
 30
0.0
 10
138.90452745225693
 20
103.39730631510416
 30
0.0
 10
138.7581108940972
 20
103.25088975694443
 30
0.0
 10
138.57724338107639
 20
103.24951171874999
 30
0.0
  0
LINE
  5
C0
100
AcDbEntity
  8
0
 62
     7
100
AcDbLine
 10
141.655092
 20
104.847002
 30
0.0
 11
144.814589
 21
101.68785
 31
0.0
  0
LINE
  5
BF
100
AcDbEntity
  8
0
 62
     7
100
AcDbLine
 10
144.863854
 20
104.847002
 30
0.0
 11
141.704357
 21
101.68785
 31
0.0
  0
POLYLINE
  5
B9
100
AcDbEntity
  8
0
 62
     7
100
AcDb2dPolyline
 66
     1
 10
0.0
 20
0.0
 30
0.0
 70
     1
  0
VERTEX
  5
BA
100
AcDbEntity
  8
0
 62
     7
100
AcDbVertex
100
AcDb2dVertex
 10
144.916908
 20
99.263192
 30
0.0
  0
VERTEX
  5
BB
100
AcDbEntity
  8
0
 62
     7
100
AcDbVertex
100
AcDb2dVertex
 10
144.916908
 20
109.44586
 30
0.0
  0
VERTEX
  5
BC
100
AcDbEntity
  8
0
 62
     7
100
AcDbVertex
100
AcDb2dVertex
 10
141.629942
 20
109.44586
 30
0.0
  0
VERTEX
  5
BD
100
AcDbEntity
  8
0
 62
     7
100
AcDbVertex
100
AcDb2dVertex
 10
141.629942
 20
99.263192
 30
0.0
  0
SEQEND
  5
BE
100
AcDbEntity
  8
0
 62
     7
  0
LINE
  5
B8
100
AcDbEntity
  8
0
 62
     7
100
AcDbLine
 10
141.655092
 20
102.217361
 30
0.0
 11
144.579978
 21
99.292131
 31
0.0
  0
LINE
  5
B7
100
AcDbEntity
  8
0
 62
     7
100
AcDbLine
 10
144.863854
 20
102.217361
 30
0.0
 11
142.020616
 21
99.373779
 31
0.0
  0
LINE
  5
B6
100
AcDbEntity
  8
0
 62
     7
100
AcDbLine
 10
141.655092
 20
107.476644
 30
0.0
 11
144.814589
 21
104.317147
 31
0.0
  0
LINE
  5
B5
100
AcDbEntity
  8
0
 62
     7
100
AcDbLine
 10
144.863854
 20
107.476644
 30
0.0
 11
141.704357
 21
104.317147
 31
0.0
  0
LINE
  5
B4
100
AcDbEntity
  8
0
 62
     7
100
AcDbLine
 10
142.243169
 20
109.518207
 30
0.0
 11
144.814589
 21
106.946788
 31
0.0
  0
LINE
  5
B3
100
AcDbEntity
  8
0
 62
     7
100
AcDbLine
 10
144.30816
 20
109.549902
 30
0.0
 11
141.704357
 21
106.946788
 31
0.0
  0
SPLINE
  5
B2
100
AcDbEntity
  8
0
 62
     7
100
AcDbSpline
210
0.0
220
0.0
230
1.0
 70
     8
 71
     3
 72
    20
 73
    16
 74
     0
 42
0.00000001
 43
0.00000001
 40
0.0
 40
0.0
 40
0.0
 40
0.0
 40
1.0
 40
1.0
 40
1.0
 40
2.0
 40
2.0
 40
2.0
 40
3.0
 40
3.0
 40
3.0
 40
4.0
 40
4.0
 40
4.0
 40
5.0
 40
5.0
 40
5.0
 40
5.0
 10
142.8288357204861
 20
107.57896321614582
 30
0.0
 10
142.64762369791666
 20
107.58034125434027
 30
0.0
 10
142.50155164930555
 20
107.7267578125
 30
0.0
 10
142.50017361111111
 20
107.90762532552083
 30
0.0
 10
142.50155164930555
 20
108.08883734809027
 30
0.0
 10
142.64762369791666
 20
108.23525390624999
 30
0.0
 10
142.8288357204861
 20
108.23628743489583
 30
0.0
 10
142.91599663628472
 20
108.23628743489583
 30
0.0
 10
142.99971245659722
 20
108.20183648003471
 30
0.0
 10
143.0613796657986
 20
108.14016927083333
 30
0.0
 10
143.123046875
 20
108.07850206163194
 30
0.0
 10
143.15749782986109
 20
107.99478624131943
 30
0.0
 10
143.15749782986109
 20
107.90762532552083
 30
0.0
 10
143.15611979166664
 20
107.7267578125
 30
0.0
 10
143.00970323350694
 20
107.58034125434027
 30
0.0
 10
142.8288357204861
 20
107.57896321614582
 30
0.0
  0
POLYLINE
  5
AD
100
AcDbEntity
  8
0
 62
     7
100
AcDb2dPolyline
 66
     1
 10
0.0
 20
0.0
 30
0.0
  0
VERTEX
  5
AE
100
AcDbEntity
  8
0
 62
     7
100
AcDbVertex
100
AcDb2dVertex
 10
139.539459
 20
111.995231
 30
0.0
  0
VERTEX
  5
AF
100
AcDbEntity
  8
0
 62
     7
100
AcDbVertex
100
AcDb2dVertex
 10
141.444596
 20
112.506483
 30
0.0
  0
VERTEX
  5
B0
100
AcDbEntity
  8
0
 62
     7
100
AcDbVertex
100
AcDb2dVertex
 10
139.539459
 20
113.016702
 30
0.0
  0
SEQEND
  5
B1
100
AcDbEntity
  8
0
 62
     7
  0
LINE
  5
AC
100
AcDbEntity
  8
0
 62
     7
100
AcDbLine
 10
141.444596
 20
112.506483
 30
0.0
 11
136.964594
 21
112.506483
 31
0.0
  0
POLYLINE
  5
A7
100
AcDbEntity
  8
0
 62
     7
100
AcDb2dPolyline
 66
     1
 10
0.0
 20
0.0
 30
0.0
  0
VERTEX
  5
A8
100
AcDbEntity
  8
0
 62
     7
100
AcDbVertex
100
AcDb2dVertex
 10
146.804131
 20
111.899113
 30
0.0
  0
VERTEX
  5
A9
100
AcDbEntity
  8
0
 62
     7
100
AcDbVertex
100
AcDb2dVertex
 10
144.899338
 20
112.409332
 30
0.0
  0
VERTEX
  5
AA
100
AcDbEntity
  8
0
 62
     7
100
AcDbVertex
100
AcDb2dVertex
 10
146.804131
 20
112.91955
 30
0.0
  0
SEQEND
  5
AB
100
AcDbEntity
  8
0
 62
     7
  0
LINE
  5
A6
100
AcDbEntity
  8
0
 62
     7
100
AcDbLine
 10
144.899338
 20
112.409332
 30
0.0
 11
149.378996
 21
112.409332
 31
0.0
  0
MTEXT
  5
A5
100
AcDbEntity
  8
0
 62
     7
100
AcDbMText
 10
141.804953
 20
115.913676
 30
0.0
 40
2.602419
 41
0.0
 71
     1
 72
     2
  1
\W0.50;\fMS Gothic|b0|i0|c128;(25)
  7
STD
210
0.0
220
0.0
230
1.0
 11
1.000001
 21
0.0
 31
0.0
 73
     1
 44
1.0
  0
POLYLINE
  5
A0
100
AcDbEntity
  8
0
 62
     7
100
AcDb2dPolyline
 66
     1
 10
0.0
 20
0.0
 30
0.0
  0
VERTEX
  5
A1
100
AcDbEntity
  8
0
 62
     7
100
AcDbVertex
100
AcDb2dVertex
 10
158.03032
 20
111.763721
 30
0.0
  0
VERTEX
  5
A2
100
AcDbEntity
  8
0
 62
     7
100
AcDbVertex
100
AcDb2dVertex
 10
158.540538
 20
109.858927
 30
0.0
  0
VERTEX
  5
A3
100
AcDbEntity
  8
0
 62
     7
100
AcDbVertex
100
AcDb2dVertex
 10
159.050757
 20
111.763721
 30
0.0
  0
SEQEND
  5
A4
100
AcDbEntity
  8
0
 62
     7
  0
LINE
  5
9F
100
AcDbEntity
  8
0
 62
     7
100
AcDbLine
 10
154.49324
 20
109.478933
 30
0.0
 11
164.689
 21
99.283173
 31
0.0
  0
LINE
  5
9E
100
AcDbEntity
  8
0
 62
     7
100
AcDbLine
 10
155.672496
 20
109.614326
 30
0.0
 11
166.070828
 21
99.215994
 31
0.0
  0
LINE
  5
9D
100
AcDbEntity
  8
0
 62
     7
100
AcDbLine
 10
157.041233
 20
109.560238
 30
0.0
 11
167.395123
 21
99.206692
 31
0.0
  0
SPLINE
  5
9C
100
AcDbEntity
  8
0
 62
     7
100
AcDbSpline
210
0.0
220
0.0
230
1.0
 70
     8
 71
     3
 72
    17
 73
    13
 74
     0
 42
0.00000001
 43
0.00000001
 40
0.0
 40
0.0
 40
0.0
 40
0.0
 40
1.0
 40
1.0
 40
1.0
 40
2.0
 40
2.0
 40
2.0
 40
3.0
 40
3.0
 40
3.0
 40
4.0
 40
4.0
 40
4.0
 40
4.0
 10
160.03502061631943
 20
103.27845052083332
 30
0.0
 10
160.2758327907986
 20
103.43485785590276
 30
0.0
 10
160.41398111979166
 20
103.70839843749999
 30
0.0
 10
160.39675564236109
 20
103.99503038194443
 30
0.0
 10
160.31889648437499
 20
104.37157931857638
 30
0.0
 10
159.97817654079859
 20
104.63512912326388
 30
0.0
 10
159.59439290364583
 20
104.61549207899304
 30
0.0
 10
159.21853298611109
 20
104.53763292100693
 30
0.0
 10
158.95532769097221
 20
104.19725748697915
 30
0.0
 10
158.97496473524305
 20
103.81347384982638
 30
0.0
 10
159.14790852864581
 20
103.39833984374999
 30
0.0
 10
159.59818250868054
 20
103.17096354166665
 30
0.0
 10
160.03502061631943
 20
103.27845052083332
 30
0.0
  0
SPLINE
  5
9B
100
AcDbEntity
  8
0
 62
     7
100
AcDbSpline
210
0.0
220
0.0
230
1.0
 70
     8
 71
     3
 72
    17
 73
    13
 74
     0
 42
0.00000001
 43
0.00000001
 40
0.0
 40
0.0
 40
0.0
 40
0.0
 40
1.0
 40
1.0
 40
1.0
 40
2.0
 40
2.0
 40
2.0
 40
3.0
 40
3.0
 40
3.0
 40
4.0
 40
4.0
 40
4.0
 40
4.0
 10
169.23824869791665
 20
103.27845052083332
 30
0.0
 10
169.47906087239582
 20
103.43485785590276
 30
0.0
 10
169.61720920138887
 20
103.70839843749999
 30
0.0
 10
169.59998372395833
 20
103.99503038194443
 30
0.0
 10
169.52212456597221
 20
104.37157931857638
 30
0.0
 10
169.18140462239583
 20
104.63478461371527
 30
0.0
 10
168.79762098524304
 20
104.61549207899304
 30
0.0
 10
168.42176106770833
 20
104.53763292100693
 30
0.0
 10
168.15855577256943
 20
104.19725748697915
 30
0.0
 10
168.17819281684027
 20
103.81347384982638
 30
0.0
 10
168.35113661024303
 20
103.39833984374999
 30
0.0
 10
168.80106608072916
 20
103.17096354166665
 30
0.0
 10
169.23824869791665
 20
103.27845052083332
 30
0.0
  0
LINE
  5
9A
100
AcDbEntity
  8
0
 62
     7
100
AcDbLine
 10
173.440921
 20
98.854603
 30
0.0
 11
176.600418
 21
95.695106
 31
0.0
  0
LINE
  5
99
100
AcDbEntity
  8
0
 62
     7
100
AcDbLine
 10
176.649683
 20
98.854603
 30
0.0
 11
173.490186
 21
95.695106
 31
0.0
  0
LINE
  5
98
100
AcDbEntity
  8
0
 62
     7
100
AcDbLine
 10
176.070218
 20
98.854603
 30
0.0
 11
179.229715
 21
95.695106
 31
0.0
  0
LINE
  5
97
100
AcDbEntity
  8
0
 62
     7
100
AcDbLine
 10
179.278979
 20
98.854603
 30
0.0
 11
176.119482
 21
95.695106
 31
0.0
  0
LINE
  5
96
100
AcDbEntity
  8
0
 62
     7
100
AcDbLine
 10
178.699514
 20
98.854603
 30
0.0
 11
181.859356
 21
95.695106
 31
0.0
  0
LINE
  5
95
100
AcDbEntity
  8
0
 62
     7
100
AcDbLine
 10
181.908621
 20
98.854603
 30
0.0
 11
178.749124
 21
95.695106
 31
0.0
  0
LINE
  5
94
100
AcDbEntity
  8
0
 62
     7
100
AcDbLine
 10
183.418951
 20
97.735636
 30
0.0
 11
181.378421
 21
95.695106
 31
0.0
  0
SPLINE
  5
93
100
AcDbEntity
  8
0
 62
     7
100
AcDbSpline
210
0.0
220
0.0
230
1.0
 70
     8
 71
     3
 72
    20
 73
    16
 74
     0
 42
0.00000001
 43
0.00000001
 40
0.0
 40
0.0
 40
0.0
 40
0.0
 40
1.0
 40
1.0
 40
1.0
 40
2.0
 40
2.0
 40
2.0
 40
3.0
 40
3.0
 40
3.0
 40
4.0
 40
4.0
 40
4.0
 40
5.0
 40
5.0
 40
5.0
 40
5.0
 10
172.89900716145831
 20
94.127932400173606
 30
0.0
 10
172.71779513888887
 20
94.129310438368051
 30
0.0
 10
172.57137858072915
 20
94.275726996527766
 30
0.0
 10
172.5700005425347
 20
94.456594509548609
 30
0.0
 10
172.61203070746527
 20
94.562014431423606
 30
0.0
 10
172.69436848958333
 20
94.646074761284709
 30
0.0
 10
172.79841037326386
 20
94.690861002604152
 30
0.0
 10
172.90279676649303
 20
94.735302734374997
 30
0.0
 10
173.02027452256942
 20
94.736680772569443
 30
0.0
 10
173.12569444444443
 20
94.694650607638877
 30
0.0
 10
173.1897732204861
 20
94.631949869791654
 30
0.0
 10
173.22663574218748
 20
94.546511501736106
 30
0.0
 10
173.22732476128471
 20
94.456594509548609
 30
0.0
 10
173.22629123263889
 20
94.275726996527766
 30
0.0
 10
173.07987467447916
 20
94.129310438368051
 30
0.0
 10
172.89900716145831
 20
94.127932400173606
 30
0.0
  0
LINE
  5
92
100
AcDbEntity
  8
0
 62
     7
100
AcDbLine
 10
181.329156
 20
98.854603
 30
0.0
 11
183.371064
 21
96.812695
 31
0.0
  0
SPLINE
  5
91
100
AcDbEntity
  8
0
 62
     7
100
AcDbSpline
210
0.0
220
0.0
230
1.0
 70
     8
 71
     3
 72
    17
 73
    13
 74
     0
 42
0.00000001
 43
0.00000001
 40
0.0
 40
0.0
 40
0.0
 40
0.0
 40
1.0
 40
1.0
 40
1.0
 40
2.0
 40
2.0
 40
2.0
 40
3.0
 40
3.0
 40
3.0
 40
4.0
 40
4.0
 40
4.0
 40
4.0
 10
178.44147677951386
 20
103.27845052083332
 30
0.0
 10
178.68194444444444
 20
103.43485785590276
 30
0.0
 10
178.82009277343749
 20
103.70839843749999
 30
0.0
 10
178.80321180555555
 20
103.99503038194443
 30
0.0
 10
178.72535264756942
 20
104.37157931857638
 30
0.0
 10
178.38463270399305
 20
104.63512912326388
 30
0.0
 10
178.00084906684026
 20
104.61549207899304
 30
0.0
 10
177.62498914930555
 20
104.53763292100693
 30
0.0
 10
177.36178385416665
 20
104.19725748697915
 30
0.0
 10
177.38142089843748
 20
103.81347384982638
 30
0.0
 10
177.55436469184025
 20
103.39833984374999
 30
0.0
 10
178.00429416232637
 20
103.17096354166665
 30
0.0
 10
178.44147677951386
 20
103.27845052083332
 30
0.0
  0
SPLINE
  5
90
100
AcDbEntity
  8
0
 62
     7
100
AcDbSpline
210
0.0
220
0.0
230
1.0
 70
     8
 71
     3
 72
    20
 73
    16
 74
     0
 42
0.00000001
 43
0.00000001
 40
0.0
 40
0.0
 40
0.0
 40
0.0
 40
1.0
 40
1.0
 40
1.0
 40
2.0
 40
2.0
 40
2.0
 40
3.0
 40
3.0
 40
3.0
 40
4.0
 40
4.0
 40
4.0
 40
5.0
 40
5.0
 40
5.0
 40
5.0
 10
172.89900716145831
 20
103.88719889322915
 30
0.0
 10
172.81184624565969
 20
103.88719889322915
 30
0.0
 10
172.72813042534722
 20
103.92199435763888
 30
0.0
 10
172.66646321614581
 20
103.98331705729166
 30
0.0
 10
172.60479600694444
 20
104.04498426649305
 30
0.0
 10
172.5700005425347
 20
104.12870008680555
 30
0.0
 10
172.5700005425347
 20
104.21586100260416
 30
0.0
 10
172.65922851562499
 20
104.43393554687499
 30
0.0
 10
172.90658637152777
 20
104.5396999782986
 30
0.0
 10
173.12569444444443
 20
104.45391710069444
 30
0.0
 10
173.1897732204861
 20
104.39121636284722
 30
0.0
 10
173.22663574218748
 20
104.30577799479165
 30
0.0
 10
173.22732476128471
 20
104.21586100260416
 30
0.0
 10
173.22629123263889
 20
104.03499348958333
 30
0.0
 10
173.07987467447916
 20
103.8885769314236
 30
0.0
 10
172.89900716145831
 20
103.88719889322915
 30
0.0
  0
SPLINE
  5
8F
100
AcDbEntity
  8
0
 62
     7
100
AcDbSpline
210
0.0
220
0.0
230
1.0
 70
     8
 71
     3
 72
    20
 73
    16
 74
     0
 42
0.00000001
 43
0.00000001
 40
0.0
 40
0.0
 40
0.0
 40
0.0
 40
1.0
 40
1.0
 40
1.0
 40
2.0
 40
2.0
 40
2.0
 40
3.0
 40
3.0
 40
3.0
 40
4.0
 40
4.0
 40
4.0
 40
5.0
 40
5.0
 40
5.0
 40
5.0
 10
172.89900716145831
 20
96.756195746527766
 30
0.0
 10
172.81184624565969
 20
96.756195746527766
 30
0.0
 10
172.72813042534722
 20
96.79064670138888
 30
0.0
 10
172.66646321614581
 20
96.852313910590269
 30
0.0
 10
172.60479600694444
 20
96.913981119791657
 30
0.0
 10
172.5700005425347
 20
96.997696940104163
 30
0.0
 10
172.5700005425347
 20
97.084857855902769
 30
0.0
 10
172.65922851562499
 20
97.302587890624991
 30
0.0
 10
172.90658637152777
 20
97.408696831597211
 30
0.0
 10
173.12569444444443
 20
97.322913953993051
 30
0.0
 10
173.1897732204861
 20
97.260213216145829
 30
0.0
 10
173.22663574218748
 20
97.174430338541654
 30
0.0
 10
173.22732476128471
 20
97.084857855902769
 30
0.0
 10
173.22629123263889
 20
96.90399034288194
 30
0.0
 10
173.07987467447916
 20
96.757573784722211
 30
0.0
 10
172.89900716145831
 20
96.756195746527766
 30
0.0
  0
SPLINE
  5
8E
100
AcDbEntity
  8
0
 62
     7
100
AcDbSpline
210
0.0
220
0.0
230
1.0
 70
     8
 71
     3
 72
    20
 73
    16
 74
     0
 42
0.00000001
 43
0.00000001
 40
0.0
 40
0.0
 40
0.0
 40
0.0
 40
1.0
 40
1.0
 40
1.0
 40
2.0
 40
2.0
 40
2.0
 40
3.0
 40
3.0
 40
3.0
 40
4.0
 40
4.0
 40
4.0
 40
5.0
 40
5.0
 40
5.0
 40
5.0
 10
172.89900716145831
 20
98.932118055555549
 30
0.0
 10
172.8115017361111
 20
98.932118055555549
 30
0.0
 10
172.72778591579859
 20
98.966913519965274
 30
0.0
 10
172.66611870659722
 20
99.028925238715274
 30
0.0
 10
172.60445149739581
 20
99.090936957465274
 30
0.0
 10
172.5700005425347
 20
99.174652777777766
 30
0.0
 10
172.5700005425347
 20
99.262158203124997
 30
0.0
 10
172.65922851562499
 20
99.479543728298609
 30
0.0
 10
172.90693088107636
 20
99.584963650173606
 30
0.0
 10
173.12569444444443
 20
99.49883626302082
 30
0.0
 10
173.1897732204861
 20
99.436480034722209
 30
0.0
 10
173.22629123263889
 20
99.351386176215271
 30
0.0
 10
173.22732476128471
 20
99.262158203124997
 30
0.0
 10
173.22663574218748
 20
99.080601671006931
 30
0.0
 10
173.08021918402775
 20
98.933840603298606
 30
0.0
 10
172.89900716145831
 20
98.932118055555549
 30
0.0
  0
MTEXT
  5
8D
100
AcDbEntity
  8
0
 62
     7
100
AcDbMText
 10
176.00166
 20
122.986802
 30
0.0
 40
2.602419
 41
0.0
 71
     1
 72
     2
  1
\W0.50;\fMS Gothic|b0|i0|c128;防水層
  7
KANJISTD
210
0.0
220
0.0
230
1.0
 11
1.000001
 21
0.0
 31
0.0
 73
     1
 44
1.0
  0
LINE
  5
8C
100
AcDbEntity
  8
0
 62
     7
100
AcDbLine
 10
172.899007
 20
121.876799
 30
0.0
 11
175.218245
 21
121.876799
 31
0.0
  0
POLYLINE
  5
87
100
AcDbEntity
  8
0
 62
     7
100
AcDb2dPolyline
 66
     1
 10
0.0
 20
0.0
 30
0.0
  0
VERTEX
  5
88
100
AcDbEntity
  8
0
 62
     7
100
AcDbVertex
100
AcDb2dVertex
 10
158.992535
 20
167.701908
 30
0.0
  0
VERTEX
  5
89
100
AcDbEntity
  8
0
 62
     7
100
AcDbVertex
100
AcDb2dVertex
 10
158.482316
 20
169.605668
 30
0.0
  0
VERTEX
  5
8A
100
AcDbEntity
  8
0
 62
     7
100
AcDbVertex
100
AcDb2dVertex
 10
157.971753
 20
167.701908
 30
0.0
  0
SEQEND
  5
8B
100
AcDbEntity
  8
0
 62
     7
  0
MTEXT
  5
86
100
AcDbEntity
  8
0
 62
     7
100
AcDbMText
 10
175.924146
 20
133.731021
 30
0.0
 40
2.602419
 41
0.0
 71
     1
 72
     2
  1
\W0.50;\fMS Gothic|b0|i0|c128;フラットヤーンクロス(70g/㎡程度)
  7
KANJISTD
210
0.0
220
0.0
230
1.0
 11
1.000001
 21
0.0
 31
0.0
 73
     1
 44
1.0
  0
MTEXT
  5
85
100
AcDbEntity
  8
0
 62
     7
100
AcDbMText
 10
175.61512
 20
139.297606
 30
0.0
 40
2.602419
 41
0.0
 71
     1
 72
     2
  1
\W0.50;\fMS Gothic|b0|i0|c128;押さえコンクリート
  7
KANJISTD
210
0.0
220
0.0
230
1.0
 11
1.000001
 21
0.0
 31
0.0
 73
     1
 44
1.0
  0
LINE
  5
84
100
AcDbEntity
  8
0
 62
     7
100
AcDbLine
 10
172.899007
 20
127.135737
 30
0.0
 11
175.218245
 21
127.135737
 31
0.0
  0
LINE
  5
83
100
AcDbEntity
  8
0
 62
     7
100
AcDbLine
 10
172.899007
 20
132.394675
 30
0.0
 11
175.218245
 21
132.394675
 31
0.0
  0
MTEXT
  5
82
100
AcDbEntity
  8
0
 62
     7
100
AcDbMText
 10
115.889223
 20
233.345982
 30
0.0
 40
4.089519
 41
0.0
 71
     1
 72
     2
  1
\W0.50;\fMS Gothic|b0|i0|c128;【断熱防水】
  7
KANJISTD
210
0.0
220
0.0
230
1.0
 11
1.000001
 21
0.0
 31
0.0
 73
     1
 44
1.0
  0
MTEXT
  5
81
100
AcDbEntity
  8
0
 62
     7
100
AcDbMText
 10
78.518722
 20
218.748398
 30
0.0
 40
2.602419
 41
0.0
 71
     1
 72
     2
  1
\W0.50;\fMS Gothic|b0|i0|c128;コンクリートこて仕上げA種
  7
KANJISTD
210
0.0
220
0.0
230
1.0
 11
1.000001
 21
0.0
 31
0.0
 73
     1
 44
1.0
  0
POLYLINE
  5
7C
100
AcDbEntity
  8
0
 62
     7
100
AcDb2dPolyline
 66
     1
 10
0.0
 20
0.0
 30
0.0
  0
VERTEX
  5
7D
100
AcDbEntity
  8
0
 62
     7
100
AcDbVertex
100
AcDb2dVertex
 10
75.885291
 20
185.569035
 30
0.0
  0
VERTEX
  5
7E
100
AcDbEntity
  8
0
 62
     7
100
AcDbVertex
100
AcDb2dVertex
 10
83.074344
 20
185.569035
 30
0.0
  0
VERTEX
  5
7F
100
AcDbEntity
  8
0
 62
     7
100
AcDbVertex
100
AcDb2dVertex
 10
83.074344
 20
215.311061
 30
0.0
  0
SEQEND
  5
80
100
AcDbEntity
  8
0
 62
     7
  0
POLYLINE
  5
77
100
AcDbEntity
  8
0
 62
     7
100
AcDb2dPolyline
 66
     1
 10
0.0
 20
0.0
 30
0.0
  0
VERTEX
  5
78
100
AcDbEntity
  8
0
 62
     7
100
AcDbVertex
100
AcDb2dVertex
 10
71.545676
 20
208.341633
 30
0.0
  0
VERTEX
  5
79
100
AcDbEntity
  8
0
 62
     7
100
AcDbVertex
100
AcDb2dVertex
 10
76.455454
 20
217.145058
 30
0.0
  0
VERTEX
  5
7A
100
AcDbEntity
  8
0
 62
     7
100
AcDbVertex
100
AcDb2dVertex
 10
78.69735
 20
217.145058
 30
0.0
  0
SEQEND
  5
7B
100
AcDbEntity
  8
0
 62
     7
  0
MTEXT
  5
76
100
AcDbEntity
  8
0
 62
     7
100
AcDbMText
 10
68.077843
 20
217.515054
 30
0.0
 40
2.602419
 41
0.0
 71
     1
 72
     2
  1
\W0.50;\fMS Gothic|b0|i0|c128;(90)
  7
STD
210
0.0
220
0.0
230
1.0
 11
1.000001
 21
0.0
 31
0.0
 73
     1
 44
1.0
  0
LINE
  5
75
100
AcDbEntity
  8
0
 62
     7
100
AcDbLine
 10
69.167871
 20
185.893907
 30
0.0
 11
44.522347
 21
210.539776
 31
0.0
  0
LINE
  5
74
100
AcDbEntity
  8
0
 62
     7
100
AcDbLine
 10
68.133653
 20
185.613821
 30
0.0
 11
44.599173
 21
209.147613
 31
0.0
  0
LINE
  5
73
100
AcDbEntity
  8
0
 62
     7
100
AcDbLine
 10
66.795062
 20
185.63742
 30
0.0
 11
44.621738
 21
207.663293
 31
0.0
  0
LINE
  5
72
100
AcDbEntity
  8
0
 62
     7
100
AcDbLine
 10
47.012807
 20
211.147319
 30
0.0
 11
82.997001
 21
211.220871
 31
0.0
  0
POLYLINE
  5
6D
100
AcDbEntity
  8
0
 62
     7
100
AcDb2dPolyline
 66
     1
 10
0.0
 20
0.0
 30
0.0
  0
VERTEX
  5
6E
100
AcDbEntity
  8
0
 62
     7
100
AcDbVertex
100
AcDb2dVertex
 10
66.929248
 20
213.735963
 30
0.0
  0
VERTEX
  5
6F
100
AcDbEntity
  8
0
 62
     7
100
AcDbVertex
100
AcDb2dVertex
 10
65.024282
 20
214.24601
 30
0.0
  0
VERTEX
  5
70
100
AcDbEntity
  8
0
 62
     7
100
AcDbVertex
100
AcDb2dVertex
 10
66.929248
 20
214.756228
 30
0.0
  0
SEQEND
  5
71
100
AcDbEntity
  8
0
 62
     7
  0
POLYLINE
  5
68
100
AcDbEntity
  8
0
 62
     7
100
AcDb2dPolyline
 66
     1
 10
0.0
 20
0.0
 30
0.0
  0
VERTEX
  5
69
100
AcDbEntity
  8
0
 62
     7
100
AcDbVertex
100
AcDb2dVertex
 10
65.024282
 20
186.388106
 30
0.0
  0
VERTEX
  5
6A
100
AcDbEntity
  8
0
 62
     7
100
AcDbVertex
100
AcDb2dVertex
 10
65.024282
 20
214.24601
 30
0.0
  0
VERTEX
  5
6B
100
AcDbEntity
  8
0
 62
     7
100
AcDbVertex
100
AcDb2dVertex
 10
76.909517
 20
214.24601
 30
0.0
  0
SEQEND
  5
6C
100
AcDbEntity
  8
0
 62
     7
  0
POLYLINE
  5
63
100
AcDbEntity
  8
0
 62
     7
100
AcDb2dPolyline
 66
     1
 10
0.0
 20
0.0
 30
0.0
  0
VERTEX
  5
64
100
AcDbEntity
  8
0
 62
     7
100
AcDbVertex
100
AcDb2dVertex
 10
82.48661
 20
187.551687
 30
0.0
  0
VERTEX
  5
65
100
AcDbEntity
  8
0
 62
     7
100
AcDbVertex
100
AcDb2dVertex
 10
82.997001
 20
185.646722
 30
0.0
  0
VERTEX
  5
66
100
AcDbEntity
  8
0
 62
     7
100
AcDbVertex
100
AcDb2dVertex
 10
83.507392
 20
187.551687
 30
0.0
  0
SEQEND
  5
67
100
AcDbEntity
  8
0
 62
     7
  0
MTEXT
  5
62
100
AcDbEntity
  8
0
 62
     7
100
AcDbMText
 10
80.02079
 20
195.068024
 30
0.0
 40
2.602419
 41
0.0
 71
     1
 72
     2
  1
\W0.50;\fMS Gothic|b0|i0|c128;(170)
  7
STD
210
0.0
220
0.0
230
1.0
 11
0.0
 21
1.0
 31
0.0
 73
     1
 44
1.0
  0
LINE
  5
61
100
AcDbEntity
  8
0
 62
     7
100
AcDbLine
 10
76.897976
 20
204.459182
 30
0.0
 11
73.305431
 21
208.051039
 31
0.0
  0
LINE
  5
60
100
AcDbEntity
  8
0
 62
     7
100
AcDbLine
 10
76.92192
 20
203.119557
 30
0.0
 11
71.989577
 21
208.052417
 31
0.0
  0
LINE
  5
5F
100
AcDbEntity
  8
0
 62
     7
100
AcDbLine
 10
76.805648
 20
201.921697
 30
0.0
 11
70.400182
 21
208.327163
 31
0.0
  0
LINE
  5
5E
100
AcDbEntity
  8
0
 62
     7
100
AcDbLine
 10
75.885291
 20
208.106333
 30
0.0
 11
83.074344
 21
208.106333
 31
0.0
  0
POLYLINE
  5
59
100
AcDbEntity
  8
0
 62
     7
100
AcDb2dPolyline
 66
     1
 10
0.0
 20
0.0
 30
0.0
  0
VERTEX
  5
5A
100
AcDbEntity
  8
0
 62
     7
100
AcDbVertex
100
AcDb2dVertex
 10
75.004552
 20
213.735963
 30
0.0
  0
VERTEX
  5
5B
100
AcDbEntity
  8
0
 62
     7
100
AcDbVertex
100
AcDb2dVertex
 10
76.909517
 20
214.24601
 30
0.0
  0
VERTEX
  5
5C
100
AcDbEntity
  8
0
 62
     7
100
AcDbVertex
100
AcDb2dVertex
 10
75.004552
 20
214.756228
 30
0.0
  0
SEQEND
  5
5D
100
AcDbEntity
  8
0
 62
     7
  0
SPLINE
  5
58
100
AcDbEntity
  8
0
 62
     7
100
AcDbSpline
210
0.0
220
0.0
230
1.0
 70
     8
 71
     3
 72
    17
 73
    13
 74
     0
 42
0.00000001
 43
0.00000001
 40
0.0
 40
0.0
 40
0.0
 40
0.0
 40
1.0
 40
1.0
 40
1.0
 40
2.0
 40
2.0
 40
2.0
 40
3.0
 40
3.0
 40
3.0
 40
4.0
 40
4.0
 40
4.0
 40
4.0
 10
71.735673014322913
 20
208.05758463541665
 30
0.0
 10
71.811637369791654
 20
208.12614203559025
 30
0.0
 10
71.855390082465277
 20
208.22346598307288
 30
0.0
 10
71.856251356336799
 20
208.32578531901041
 30
0.0
 10
71.855045572916666
 20
208.52336154513887
 30
0.0
 10
71.695537651909717
 20
208.68321397569443
 30
0.0
 10
71.498133680555554
 20
208.68476426866317
 30
0.0
 10
71.300557454427079
 20
208.68321397569443
 30
0.0
 10
71.14104953342013
 20
208.52336154513887
 30
0.0
 10
71.139843749999997
 20
208.32578531901041
 30
0.0
 10
71.231827799479163
 20
208.08859049479165
 30
0.0
 10
71.49710015190972
 20
207.96904568142358
 30
0.0
 10
71.735673014322913
 20
208.05758463541665
 30
0.0
  0
POLYLINE
  5
53
100
AcDbEntity
  8
0
 62
     7
100
AcDb2dPolyline
 66
     1
 10
0.0
 20
0.0
 30
0.0
  0
VERTEX
  5
54
100
AcDbEntity
  8
0
 62
     7
100
AcDbVertex
100
AcDb2dVertex
 10
83.584734
 20
206.332625
 30
0.0
  0
VERTEX
  5
55
100
AcDbEntity
  8
0
 62
     7
100
AcDbVertex
100
AcDb2dVertex
 10
83.074344
 20
208.237763
 30
0.0
  0
VERTEX
  5
56
100
AcDbEntity
  8
0
 62
     7
100
AcDbVertex
100
AcDb2dVertex
 10
82.563953
 20
206.332625
 30
0.0
  0
SEQEND
  5
57
100
AcDbEntity
  8
0
 62
     7
  0
LINE
  5
52
100
AcDbEntity
  8
0
 62
     7
100
AcDbLine
 10
76.909517
 20
206.382579
 30
0.0
 11
76.909517
 21
214.24601
 31
0.0
  0
MTEXT
  5
51
100
AcDbEntity
  8
0
 62
     7
100
AcDbMText
 10
83.370628
 20
207.889292
 30
0.0
 40
2.602419
 41
0.0
 71
     1
 72
     2
  1
\W0.50;\fMS Gothic|b0|i0|c128;(25)
  7
STD
210
0.0
220
0.0
230
1.0
 11
0.0
 21
1.0
 31
0.0
 73
     1
 44
1.0
  0
POLYLINE
  5
4C
100
AcDbEntity
  8
0
 62
     7
100
AcDb2dPolyline
 66
     1
 10
0.0
 20
0.0
 30
0.0
  0
VERTEX
  5
4D
100
AcDbEntity
  8
0
 62
     7
100
AcDbVertex
100
AcDb2dVertex
 10
82.48661
 20
213.38887
 30
0.0
  0
VERTEX
  5
4E
100
AcDbEntity
  8
0
 62
     7
100
AcDbVertex
100
AcDb2dVertex
 10
82.997001
 20
211.483904
 30
0.0
  0
VERTEX
  5
4F
100
AcDbEntity
  8
0
 62
     7
100
AcDbVertex
100
AcDb2dVertex
 10
83.507392
 20
213.38887
 30
0.0
  0
SEQEND
  5
50
100
AcDbEntity
  8
0
 62
     7
  0
MTEXT
  5
4B
100
AcDbEntity
  8
0
 62
     7
100
AcDbMText
 10
93.035837
 20
191.426724
 30
0.0
 40
2.602419
 41
0.0
 71
     1
 72
     2
  1
\W0.50;\fMS Gothic|b0|i0|c128;(上部ホルダーの機能を併設)
  7
KANJISTD
210
0.0
220
0.0
230
1.0
 11
1.000001
 21
0.0
 31
0.0
 73
     1
 44
1.0
  0
MTEXT
  5
4A
100
AcDbEntity
  8
0
 62
     7
100
AcDbMText
 10
93.035837
 20
194.680789
 30
0.0
 40
2.602419
 41
0.0
 71
     1
 72
     2
  1
\W0.50;\fMS Gothic|b0|i0|c128;水切り金物
  7
KANJISTD
210
0.0
220
0.0
230
1.0
 11
1.000001
 21
0.0
 31
0.0
 73
     1
 44
1.0
  0
INSERT
  5
2A
100
AcDbEntity
  8
レイヤー_1
 62
     7
100
AcDbBlockReference
  2
AI9-BLK1
 10
72.161487
 20
102.570483
 30
0.0
  0
ENDSEC
  0
SECTION
  2
OBJECTS
  0
DICTIONARY
  5
19
100
AcDbDictionary
280
     0
281
     1
  3
ACAD_GROUP
350
1A
  3
ACAD_MLINESTYLE
350
1B
  3
ACAD_LAYOUT
350
1E
  3
ACAD_PLOTSETTINGS
350
22
  3
ACAD_PLOTSTYLENAME
350
1F
  3
ACAD_WIPEOUT_VARS
350
23
  0
DICTIONARY
  5
1A
102
{ACAD_REACTORS
330
19
102
}
100
AcDbDictionary
280
     0
281
     1
  0
DICTIONARY
  5
1B
102
{ACAD_REACTORS
330
19
102
}
100
AcDbDictionary
280
     0
281
     1
  3
Standard
350
1C
  0
MLINESTYLE
  5
1C
102
{ACAD_REACTORS
330
1B
102
}
100
AcDbMlineStyle
  2
Standard
 70
     0
  3

 62
     0
 51
90.0
 52
90.0
 71
     2
 49
0.5
 62
   256
  6
BYLAYER
 49
-0.5
 62
   256
  6
BYLAYER
  0
ACDBDICTIONARYWDFLT
  5
1F
102
{ACAD_REACTORS
330
19
102
}
100
AcDbDictionary
281
     1
  3
Normal
350
1D
100
AcDbDictionaryWithDefault
340
1D
  0
ACDBPLACEHOLDER
  5
1D
102
{ACAD_REACTORS
330
1F
102
}
  0
LAYOUT
  5
20
102
{ACAD_REACTORS
330
1E
102
}
100
AcDbPlotSettings
  1

  2

  4

  6

 40
0.0
 41
0.0
 42
0.0
 43
0.0
 44
0.0
 45
0.0
 46
0.0
 47
0.0
 48
0.0
 49
0.0
140
0.0
141
0.0
142
1.0
143
1.0
 70
  1024
 72
     0
 73
     0
 74
     0
  7

 75
     0
147
1.0
148
0.0
149
0.0
100
AcDbLayout
  1
Model
 70
     0
 71
     0
 10
0.0
 20
0.0
 11
0.0
 21
0.0
 12
0.0
 22
0.0
 32
0.0
 14
0.0
 24
0.0
 34
0.0
 15
0.0
 25
0.0
 35
0.0
146
0.0
 13
0.0
 23
0.0
 33
0.0
 16
0.0
 26
0.0
 36
0.0
 17
0.0
 27
0.0
 37
0.0
 76
     0
330
A
331
0
345
0
346
0
  0
LAYOUT
  5
21
102
{ACAD_REACTORS
330
1E
102
}
100
AcDbPlotSettings
  1

  2

  4

  6

 40
0.0
 41
0.0
 42
0.0
 43
0.0
 44
0.0
 45
0.0
 46
0.0
 47
0.0
 48
0.0
 49
0.0
140
0.0
141
0.0
142
1.0
143
1.0
 70
     0
 72
     0
 73
     0
 74
     0
  7

 75
     0
147
1.0
148
0.0
149
0.0
100
AcDbLayout
  1
Layout1
 70
     0
 71
     0
 10
0.0
 20
0.0
 11
0.0
 21
0.0
 12
0.0
 22
0.0
 32
0.0
 14
0.0
 24
0.0
 34
0.0
 15
0.0
 25
0.0
 35
0.0
146
0.0
 13
0.0
 23
0.0
 33
0.0
 16
0.0
 26
0.0
 36
0.0
 17
0.0
 27
0.0
 37
0.0
 76
     0
330
B
331
0
345
0
346
0
  0
DICTIONARY
  5
1E
102
{ACAD_REACTORS
330
19
102
}
100
AcDbDictionary
280
     0
281
     1
  3
Layout1
350
21
  3
Model
350
20
  0
DICTIONARY
  5
22
102
{ACAD_REACTORS
330
19
102
}
100
AcDbDictionary
280
     0
281
     1
  0
WIPEOUTVARIABLES
  5
23
100
AcDbWipeoutVariables
 70
     1
  0
ENDSEC
  0
EOF
