  0
SECTION
  2
HEADER
  9
$ACADVER
  1
AC1015
  9
$ACADMAINTVER
 70
     6
  9
$DWGCODEPAGE
  3
ANSI_932
  9
$INSBASE
 10
0.0
 20
0.0
 30
0.0
  9
$EXTMIN
 10
4.761639
 20
58.950062
 30
1.000000E+20
  9
$EXTMAX
 10
203.905556
 20
237.516424
 30
-1.000000E+20
  9
$LIMMIN
 10
4.761639
 20
58.950062
  9
$LIMMAX
 10
203.905556
 20
237.516424
  9
$ORTHOMODE
 70
     0
  9
$REGENMODE
 70
     1
  9
$FILLMODE
 70
     1
  9
$QTEXTMODE
 70
     0
  9
$MIRRTEXT
 70
     1
  9
$LTSCALE
 40
1.0
  9
$ATTMODE
 70
     1
  9
$TEXTSIZE
 40
0.2
  9
$TRACEWID
 40
0.05
  9
$TEXTSTYLE
  7
Standard
  9
$CLAYER
  8
0
  9
$CELTYPE
  6
Continuous
  9
$CECOLOR
 62
   256
  9
$CELTSCALE
 40
1.0
  9
$DISPSILH
 70
     0
  9
$DIMSCALE
 40
1.0
  9
$DIMASZ
 40
0.18
  9
$DIMEXO
 40
0.0625
  9
$DIMDLI
 40
0.38
  9
$DIMRND
 40
0.0
  9
$DIMDLE
 40
0.0
  9
$DIMEXE
 40
0.18
  9
$DIMTP
 40
0.0
  9
$DIMTM
 40
0.0
  9
$DIMTXT
 40
0.18
  9
$DIMCEN
 40
0.09
  9
$DIMTSZ
 40
0.0
  9
$DIMTOL
 70
     0
  9
$DIMLIM
 70
     0
  9
$DIMTIH
 70
     1
  9
$DIMTOH
 70
     1
  9
$DIMSE1
 70
     0
  9
$DIMSE2
 70
     0
  9
$DIMTAD
 70
     0
  9
$DIMZIN
 70
     0
  9
$DIMBLK
  1

  9
$DIMASO
 70
     1
  9
$DIMSHO
 70
     1
  9
$DIMPOST
  1

  9
$DIMAPOST
  1

  9
$DIMALT
 70
     0
  9
$DIMALTD
 70
     2
  9
$DIMALTF
 40
25.4
  9
$DIMLFAC
 40
1.0
  9
$DIMTOFL
 70
     0
  9
$DIMTVP
 40
0.0
  9
$DIMTIX
 70
     0
  9
$DIMSOXD
 70
     0
  9
$DIMSAH
 70
     0
  9
$DIMBLK1
  1

  9
$DIMBLK2
  1

  9
$DIMSTYLE
  2
Standard
  9
$DIMCLRD
 70
     0
  9
$DIMCLRE
 70
     0
  9
$DIMCLRT
 70
     0
  9
$DIMTFAC
 40
1.0
  9
$DIMGAP
 40
0.09
  9
$DIMJUST
 70
     0
  9
$DIMSD1
 70
     0
  9
$DIMSD2
 70
     0
  9
$DIMTOLJ
 70
     1
  9
$DIMTZIN
 70
     0
  9
$DIMALTZ
 70
     0
  9
$DIMALTTZ
 70
     0
  9
$DIMUPT
 70
     0
  9
$DIMDEC
 70
     4
  9
$DIMTDEC
 70
     4
  9
$DIMALTU
 70
     2
  9
$DIMALTTD
 70
     2
  9
$DIMTXSTY
  7
Standard
  9
$DIMAUNIT
 70
     0
  9
$DIMADEC
 70
     0
  9
$DIMALTRND
 40
0.0
  9
$DIMAZIN
 70
     0
  9
$DIMDSEP
 70
     0
  9
$DIMATFIT
 70
     3
  9
$DIMFRAC
 70
     0
  9
$DIMLDRBLK
  1

  9
$DIMLUNIT
 70
     2
  9
$DIMLWD
 70
     0
  9
$DIMLWE
 70
     0
  9
$DIMTMOVE
 70
     0
  9
$LUNITS
 70
     2
  9
$LUPREC
 70
     4
  9
$SKETCHINC
 40
0.1
  9
$FILLETRAD
 40
0.0
  9
$AUNITS
 70
     0
  9
$AUPREC
 70
     0
  9
$MENU
  1
acad
  9
$ELEVATION
 40
0.0
  9
$PELEVATION
 40
0.0
  9
$THICKNESS
 40
0.0
  9
$LIMCHECK
 70
     0
  9
$CHAMFERA
 40
0.0
  9
$CHAMFERB
 40
0.0
  9
$CHAMFERC
 40
0.0
  9
$CHAMFERD
 40
0.0
  9
$SKPOLY
 70
     0
  9
$TDCREATE
 40
0.000000000
  9
$TDUCREATE
 40
0.000000000
  9
$TDUPDATE
 40
0.000000000
  9
$TDUUPDATE
 40
0.000000000
  9
$TDINDWG
 40
0.0000000000
  9
$TDUSRTIMER
 40
0.0000000000
  9
$USRTIMER
 70
     1
  9
$ANGBASE
 50
0.0
  9
$ANGDIR
 70
     0
  9
$PDMODE
 70
     0
  9
$PDSIZE
 40
0.0
  9
$PLINEWID
 40
0.0
  9
$SPLFRAME
 70
     0
  9
$SPLINETYPE
 70
     6
  9
$SPLINESEGS
 70
     8
  9
$HANDSEED
  5
261
  9
$SURFTAB1
 70
     6
  9
$SURFTAB2
 70
     6
  9
$SURFTYPE
 70
     6
  9
$SURFU
 70
     6
  9
$SURFV
 70
     6
  9
$UCSBASE
  2

  9
$UCSNAME
  2

  9
$UCSORG
 10
0.0
 20
0.0
 30
0.0
  9
$UCSXDIR
 10
1.0
 20
0.0
 30
0.0
  9
$UCSYDIR
 10
0.0
 20
1.0
 30
0.0
  9
$UCSORTHOREF
  2

  9
$UCSORTHOVIEW
 70
     0
  9
$UCSORGTOP
 10
0.0
 20
0.0
 30
0.0
  9
$UCSORGBOTTOM
 10
0.0
 20
0.0
 30
0.0
  9
$UCSORGLEFT
 10
0.0
 20
0.0
 30
0.0
  9
$UCSORGRIGHT
 10
0.0
 20
0.0
 30
0.0
  9
$UCSORGFRONT
 10
0.0
 20
0.0
 30
0.0
  9
$UCSORGBACK
 10
0.0
 20
0.0
 30
0.0
  9
$PUCSBASE
  2

  9
$PUCSNAME
  2

  9
$PUCSORG
 10
0.0
 20
0.0
 30
0.0
  9
$PUCSXDIR
 10
1.0
 20
0.0
 30
0.0
  9
$PUCSYDIR
 10
0.0
 20
1.0
 30
0.0
  9
$PUCSORTHOREF
  2

  9
$PUCSORTHOVIEW
 70
     0
  9
$PUCSORGTOP
 10
0.0
 20
0.0
 30
0.0
  9
$PUCSORGBOTTOM
 10
0.0
 20
0.0
 30
0.0
  9
$PUCSORGLEFT
 10
0.0
 20
0.0
 30
0.0
  9
$PUCSORGRIGHT
 10
0.0
 20
0.0
 30
0.0
  9
$PUCSORGFRONT
 10
0.0
 20
0.0
 30
0.0
  9
$PUCSORGBACK
 10
0.0
 20
0.0
 30
0.0
  9
$USERI1
 70
     0
  9
$USERI2
 70
     0
  9
$USERI3
 70
     0
  9
$USERI4
 70
     0
  9
$USERI5
 70
     0
  9
$USERR1
 40
0.0
  9
$USERR2
 40
0.0
  9
$USERR3
 40
0.0
  9
$USERR4
 40
0.0
  9
$USERR5
 40
0.0
  9
$WORLDVIEW
 70
     1
  9
$SHADEDGE
 70
     3
  9
$SHADEDIF
 70
    70
  9
$TILEMODE
 70
     1
  9
$MAXACTVP
 70
    16
  9
$PINSBASE
 10
0.0
 20
0.0
 30
0.0
  9
$PLIMCHECK
 70
     0
  9
$PEXTMIN
 10
1.000000E+20
 20
1.000000E+20
 30
1.000000E+20
  9
$PEXTMAX
 10
-1.000000E+20
 20
-1.000000E+20
 30
-1.000000E+20
  9
$PLIMMIN
 10
0.0
 20
0.0
  9
$PLIMMAX
 10
12.0
 20
9.0
  9
$UNITMODE
 70
     0
  9
$VISRETAIN
 70
     0
  9
$PLINEGEN
 70
     1
  9
$PSLTSCALE
 70
     0
  9
$TREEDEPTH
 70
  3020
  9
$CMLSTYLE
  2
Standard
  9
$CMLJUST
 70
     0
  9
$CMLSCALE
 40
1.0
  9
$PROXYGRAPHICS
 70
     0
  9
$MEASUREMENT
 70
     0
  9
$CELWEIGHT
370
     0
  9
$ENDCAPS
280
     0
  9
$JOINSTYLE
280
     0
  9
$LWDISPLAY
290
     0
  9
$INSUNITS
 70
     0
  9
$HYPERLINKBASE
  1

  9
$XEDIT
290
     1
  9
$CEPSNTYPE
380
     0
  9
$PSTYLEMODE
290
     1
  9
$FINGERPRINTGUID
  2

  9
$VERSIONGUID
  2

  9
$EXTNAMES
290
     1
  9
$PSVPSCALE
 40
0.0
  0
ENDSEC
  0
SECTION
  2
CLASSES
  0
CLASS
  1
LWPOLYLINE
  2
AcDbPolyline
  3
"AutoCAD"
 90
        0
280
     0
281
     1
  0
CLASS
  1
IMAGE
  2
AcDbRasterImage
  3
ISM
 90
      127
280
     0
281
     1
  0
CLASS
  1
OLE2FRAME
  2
AcDbOle2Frame
  3
""
 90
        0
280
     0
281
     1
  0
CLASS
  1
HATCH
  2
AcDbHatch
  3
"ACAD_SEDONA"
 90
        0
280
     0
281
     1
  0
CLASS
  1
DICTIONARYVAR
  2
AcDbDictionaryVar
  3
"AutoCAD"
 90
        0
280
     0
281
     0
  0
CLASS
  1
RASTERVARIABLES
  2
AcDbRasterVariables
  3
ISM
 90
        0
280
     0
281
     0
  0
CLASS
  1
IMAGEDEF
  2
AcDbRasterImageDef
  3
ISM
 90
        0
280
     0
281
     0
  0
CLASS
  1
IMAGEDEF_REACTOR
  2
AcDbRasterImageDefReactor
  3
ISM
 90
        1
280
     0
281
     0
  0
CLASS
  1
IDBUFFER
  2
AcDbIdBuffer
  3
"Acad"
 90
        0
280
     0
281
     0
  0
CLASS
  1
SPATIAL_FILTER
  2
AcDbSpatialFilter
  3
"Acad"
 90
        0
280
     0
281
     0
  0
CLASS
  1
XRECORD
  2
AcDbXrecord
  3
"<Built In>"
 90
        0
280
     0
281
     0
  0
CLASS
  1
SORTENTSTABLE
  2
AcDbSortentsTable
  3
"AutoCAD"
 90
        0
280
     0
281
     0
  0
CLASS
  1
LAYER_INDEX
  2
AcDbLayerIndex
  3
"Acad"
 90
        0
280
     0
281
     0
  0
CLASS
  1
SPATIAL_INDEX
  2
AcDbSpatialIndex
  3
"Acad"
 90
        0
280
     0
281
     0
  0
CLASS
  1
OBJECT_PTR
  2
CAseDLPNTableRecord
  3
"ASE-LPNTableRecord"
 90
        1
280
     0
281
     0
  0
CLASS
  1
LAYOUT
  2
AcDbLayout
  3
"AutoCAD 2000"
 90
        1
280
     0
281
     0
  0
CLASS
  1
PLOTSETTINGS
  2
AcDbPlotSettings
  3
"AutoCAD 2000"
 90
        1
280
     0
281
     0
  0
CLASS
  1
ACDBDICTIONARYWDFLT
  2
AcDbDictionaryWithDefault
  3
"AutoCAD 2000"
 90
        1
280
     0
281
     0
  0
CLASS
  1
ACDBPLACEHOLDER
  2
AcDbPlaceHolder
  3
"AutoCAD 2000"
 90
        1
280
     0
281
     0
  0
CLASS
  1
VBA_PROJECT
  2
AcDbVbaProject
  3
"acadvba"
 90
        1
280
     0
281
     0
  0
CLASS
  1
WIPEOUT
  2
AcDbWipeout
  3
WipeOut|AutoCAD Express Tool|expresstools@autodesk.com
 90
      127
280
     0
281
     1
  0
CLASS
  1
WIPEOUTVARIABLES
  2
AcDbWipeoutVariables
  3
WipeOut|AutoCAD Express Tool|expresstools@autodesk.com
 90
        0
280
     0
281
     0
  0
CLASS
  1
RTEXT
  2
RText
  3
RText|AutoCAD Express Tool|expresstools@autodesk.com
 90
        0
280
     0
281
     1
  0
CLASS
  1
ARCALIGNEDTEXT
  2
AcDbArcAlignedText
  3
ATEXT|AutoCAD Express Tool|expresstools@autodesk.com
 90
        0
280
     0
281
     1
  0
ENDSEC
  0
SECTION
  2
TABLES
  0
TABLE
  2
VPORT
  5
7
100
AcDbSymbolTable
 70
     1
  0
VPORT
  5
15
100
AcDbSymbolTableRecord
100
AcDbViewportTableRecord
  2
*ACTIVE
 70
     0
 10
0.0
 20
0.0
 11
1.0
 21
1.0
 12
6.591288
 22
4.579184
 13
0.0
 23
0.0
 14
1.0
 24
1.0
 15
0.0
 25
0.0
 16
0.0
 26
0.0
 36
1.0
 17
0.0
 27
0.0
 37
0.0
 40
9.158369
 41
0.688564
 42
50.0
 43
0.0
 44
0.0
 50
0.0
 51
0.0
 71
     0
 72
   100
 73
     1
 74
     1
 75
     0
 76
     0
 77
     0
 78
     0
281
     0
 65
     0
110
0.0
120
0.0
130
0.0
111
1.0
121
0.0
131
0.0
112
0.0
122
1.0
132
0.0
345
0
346
0
 79
     0
146
0.0
  0
ENDTAB
  0
TABLE
  2
LTYPE
  5
4
100
AcDbSymbolTable
 70
     3
  0
LTYPE
  5
11
100
AcDbSymbolTableRecord
100
AcDbLinetypeTableRecord
  2
ByBlock
 70
    64
  3

 72
    65
 73
     0
 40
0.0
  0
LTYPE
  5
12
100
AcDbSymbolTableRecord
100
AcDbLinetypeTableRecord
  2
ByLayer
 70
    64
  3

 72
    65
 73
     0
 40
0.0
  0
LTYPE
  5
13
100
AcDbSymbolTableRecord
100
AcDbLinetypeTableRecord
  2
Continuous
 70
    64
  3
Solid line
 72
    65
 73
     0
 40
0.0
  0
ENDTAB
  0
TABLE
  2
LAYER
  5
2
100
AcDbSymbolTable
 70
     4
  0
LAYER
  5
14
100
AcDbSymbolTableRecord
100
AcDbLayerTableRecord
  2
0
 70
     0
 62
     7
  6
Continuous
290
     1
370
    -3
390
1D
  0
LAYER
  5
28
100
AcDbSymbolTableRecord
100
AcDbLayerTableRecord
  2
レイヤー_1
 70
     0
 62
   160
  6
Continuous
290
     1
370
    -3
390
1F
  0
LAYER
  5
29
100
AcDbSymbolTableRecord
100
AcDbLayerTableRecord
  2
0
 70
     0
 62
     7
  6
Continuous
290
     1
370
    -3
390
1F
  0
LAYER
  5
2A
100
AcDbSymbolTableRecord
100
AcDbLayerTableRecord
  2
LAYER_1
 70
     0
 62
     7
  6
Continuous
290
     1
370
    -3
390
1F
  0
ENDTAB
  0
TABLE
  2
STYLE
  5
3
100
AcDbSymbolTable
 70
     5
  0
STYLE
  5
17
100
AcDbSymbolTableRecord
100
AcDbTextStyleTableRecord
  2
Standard
 70
     0
 40
0.0
 41
1.0
 50
0.0
 71
     0
 42
0.0
  3
txt
  4

  0
STYLE
  5
24
100
AcDbSymbolTableRecord
100
AcDbTextStyleTableRecord
  2
STD
 70
     0
 40
0.0
 41
1.0
 50
0.0
 71
     0
 42
0.0
  3
txt
  4

  0
STYLE
  5
25
100
AcDbSymbolTableRecord
100
AcDbTextStyleTableRecord
  2
TATESTD
 70
     4
 40
0.0
 41
1.0
 50
0.0
 71
     0
 42
0.0
  3
txt
  4

  0
STYLE
  5
26
100
AcDbSymbolTableRecord
100
AcDbTextStyleTableRecord
  2
KANJISTD
 70
     0
 40
0.0
 41
1.0
 50
0.0
 71
     0
 42
0.0
  3
txt
  4
extfont
  0
STYLE
  5
27
100
AcDbSymbolTableRecord
100
AcDbTextStyleTableRecord
  2
KANJITATE
 70
     4
 40
0.0
 41
1.0
 50
0.0
 71
     0
 42
0.0
  3
txt
  4
extfont
  0
ENDTAB
  0
TABLE
  2
VIEW
  5
5
100
AcDbSymbolTable
 70
     0
  0
ENDTAB
  0
TABLE
  2
UCS
  5
6
100
AcDbSymbolTable
 70
     0
  0
ENDTAB
  0
TABLE
  2
APPID
  5
8
100
AcDbSymbolTable
 70
     1
  0
APPID
  5
16
100
AcDbSymbolTableRecord
100
AcDbRegAppTableRecord
  2
ACAD
 70
     0
  0
ENDTAB
  0
TABLE
  2
DIMSTYLE
  5
9
100
AcDbSymbolTable
 70
     1
100
AcDbDimStyleTable
 71
     0
  0
DIMSTYLE
105
18
100
AcDbSymbolTableRecord
100
AcDbDimStyleTableRecord
  2
Standard
 70
     0
  3

  4

 40
1.0
 41
0.18
 42
0.0625
 43
0.38
 44
0.18
 45
0.0
 46
0.0
 47
0.0
 48
0.0
 71
     0
 72
     0
 73
     1
 74
     1
 75
     0
 76
     0
 77
     0
 78
     0
 79
     0
140
0.18
141
0.09
142
0.0
143
25.4
144
1.0
145
0.0
146
1.0
147
0.09
148
0.0
170
     0
171
     2
172
     0
173
     0
174
     0
175
     0
176
     0
177
     0
178
     0
179
     0
271
     4
272
     4
273
     2
274
     2
275
     0
276
     0
277
     2
278
    46
279
     0
280
     0
281
     0
282
     0
283
     1
284
     0
285
     0
286
     0
288
     0
340
17
341
0
342
0
343
0
344
0
371
    -2
372
    -2
  0
ENDTAB
  0
TABLE
  2
BLOCK_RECORD
  5
1
100
AcDbSymbolTable
 70
     0
  0
BLOCK_RECORD
  5
A
100
AcDbSymbolTableRecord
100
AcDbBlockTableRecord
  2
*MODEL_SPACE
340
20
  0
BLOCK_RECORD
  5
B
100
AcDbSymbolTableRecord
100
AcDbBlockTableRecord
  2
*PAPER_SPACE
340
21
  0
ENDTAB
  0
ENDSEC
  0
SECTION
  2
BLOCKS
  0
BLOCK
  5
D
100
AcDbEntity
  8
0
100
AcDbBlockBegin
  2
*MODEL_SPACE
 70
     0
 10
0.0
 20
0.0
 30
0.0
  3
*MODEL_SPACE
  1

  0
ENDBLK
  5
E
100
AcDbEntity
  8
0
100
AcDbBlockEnd
  0
BLOCK
  5
F
100
AcDbEntity
 67
     1
  8
0
100
AcDbBlockBegin
  2
*PAPER_SPACE
 70
     0
 10
0.0
 20
0.0
 30
0.0
  3
*PAPER_SPACE
  1

  0
ENDBLK
  5
10
100
AcDbEntity
 67
     1
  8
0
100
AcDbBlockEnd
  0
ENDSEC
  0
SECTION
  2
ENTITIES
  0
MTEXT
  5
260
100
AcDbEntity
  8
LAYER_1
 62
     7
100
AcDbMText
 10
76.388963
 20
180.790582
 30
0.0
 40
2.656753
 41
0.0
 71
     1
 72
     2
  1
\W0.50;\fMS Gothic|b0|i0|c128;(40以上)
  7
KANJISTD
210
0.0
220
0.0
230
1.0
 11
1.000001
 21
0.0
 31
0.0
 73
     1
 44
1.0
  0
MTEXT
  5
25F
100
AcDbEntity
  8
LAYER_1
 62
     7
100
AcDbMText
 10
48.92294
 20
149.916326
 30
0.0
 40
2.656753
 41
0.0
 71
     1
 72
     2
  1
\W0.50;\fMS Gothic|b0|i0|c128;押え金物
  7
KANJISTD
210
0.0
220
0.0
230
1.0
 11
1.000001
 21
0.0
 31
0.0
 73
     1
 44
1.0
  0
POLYLINE
  5
25A
100
AcDbEntity
  8
LAYER_1
 62
     7
100
AcDb2dPolyline
 66
     1
 10
0.0
 20
0.0
 30
0.0
  0
VERTEX
  5
25B
100
AcDbEntity
  8
LAYER_1
 62
     7
100
AcDbVertex
100
AcDb2dVertex
 10
80.132232
 20
176.329806
 30
0.0
  0
VERTEX
  5
25C
100
AcDbEntity
  8
LAYER_1
 62
     7
100
AcDbVertex
100
AcDb2dVertex
 10
78.187476
 20
176.85191
 30
0.0
  0
VERTEX
  5
25D
100
AcDbEntity
  8
LAYER_1
 62
     7
100
AcDbVertex
100
AcDb2dVertex
 10
80.132232
 20
177.372808
 30
0.0
  0
SEQEND
  5
25E
100
AcDbEntity
  8
LAYER_1
 62
     7
  0
POLYLINE
  5
254
100
AcDbEntity
  8
LAYER_1
 62
     7
100
AcDb2dPolyline
 66
     1
 10
0.0
 20
0.0
 30
0.0
  0
VERTEX
  5
255
100
AcDbEntity
  8
LAYER_1
 62
     7
100
AcDbVertex
100
AcDb2dVertex
 10
62.856973
 20
171.004205
 30
0.0
  0
VERTEX
  5
256
100
AcDbEntity
  8
LAYER_1
 62
     7
100
AcDbVertex
100
AcDb2dVertex
 10
22.846667
 20
171.004205
 30
0.0
  0
VERTEX
  5
257
100
AcDbEntity
  8
LAYER_1
 62
     7
100
AcDbVertex
100
AcDb2dVertex
 10
22.846667
 20
83.864304
 30
0.0
  0
VERTEX
  5
258
100
AcDbEntity
  8
LAYER_1
 62
     7
100
AcDbVertex
100
AcDb2dVertex
 10
63.330846
 20
83.864304
 30
0.0
  0
SEQEND
  5
259
100
AcDbEntity
  8
LAYER_1
 62
     7
  0
POLYLINE
  5
24F
100
AcDbEntity
  8
LAYER_1
 62
     7
100
AcDb2dPolyline
 66
     1
 10
0.0
 20
0.0
 30
0.0
  0
VERTEX
  5
250
100
AcDbEntity
  8
LAYER_1
 62
     7
100
AcDbVertex
100
AcDb2dVertex
 10
22.325769
 20
85.80906
 30
0.0
  0
VERTEX
  5
251
100
AcDbEntity
  8
LAYER_1
 62
     7
100
AcDbVertex
100
AcDb2dVertex
 10
22.846667
 20
83.864304
 30
0.0
  0
VERTEX
  5
252
100
AcDbEntity
  8
LAYER_1
 62
     7
100
AcDbVertex
100
AcDb2dVertex
 10
23.368772
 20
85.80906
 30
0.0
  0
SEQEND
  5
253
100
AcDbEntity
  8
LAYER_1
 62
     7
  0
POLYLINE
  5
24A
100
AcDbEntity
  8
LAYER_1
 62
     7
100
AcDb2dPolyline
 66
     1
 10
0.0
 20
0.0
 30
0.0
  0
VERTEX
  5
24B
100
AcDbEntity
  8
LAYER_1
 62
     7
100
AcDbVertex
100
AcDb2dVertex
 10
23.368772
 20
168.92509
 30
0.0
  0
VERTEX
  5
24C
100
AcDbEntity
  8
LAYER_1
 62
     7
100
AcDbVertex
100
AcDb2dVertex
 10
22.846667
 20
170.869846
 30
0.0
  0
VERTEX
  5
24D
100
AcDbEntity
  8
LAYER_1
 62
     7
100
AcDbVertex
100
AcDb2dVertex
 10
22.325769
 20
168.92509
 30
0.0
  0
SEQEND
  5
24E
100
AcDbEntity
  8
LAYER_1
 62
     7
  0
MTEXT
  5
249
100
AcDbEntity
  8
LAYER_1
 62
     7
100
AcDbMText
 10
19.438195
 20
117.528743
 30
0.0
 40
2.656753
 41
0.0
 71
     1
 72
     2
  1
\W0.50;\fMS Gothic|b0|i0|c128;水上400以上
  7
KANJISTD
210
0.0
220
0.0
230
1.0
 11
0.0
 21
1.0
 31
0.0
 73
     1
 44
1.0
  0
MTEXT
  5
248
100
AcDbEntity
  8
LAYER_1
 62
     7
100
AcDbMText
 10
115.482701
 20
227.345606
 30
0.0
 40
4.174905
 41
0.0
 71
     1
 72
     2
  1
\W0.50;\fMS Gothic|b0|i0|c128;【断熱防水】
  7
KANJISTD
210
0.0
220
0.0
230
1.0
 11
1.000001
 21
0.0
 31
0.0
 73
     1
 44
1.0
  0
MTEXT
  5
247
100
AcDbEntity
  8
LAYER_1
 62
     7
100
AcDbMText
 10
14.825796
 20
217.266855
 30
0.0
 40
4.554429
 41
0.0
 71
     1
 72
     2
  1
\W0.50;\fMS Gothic|b0|i0|c128;●あご下タイプ　ホルダー方式　
  7
KANJISTD
210
0.0
220
0.0
230
1.0
 11
1.000001
 21
0.0
 31
0.0
 73
     1
 44
1.0
  0
POLYLINE
  5
241
100
AcDbEntity
  8
LAYER_1
 62
     7
100
AcDb2dPolyline
 66
     1
 10
0.0
 20
0.0
 30
0.0
 70
     1
  0
VERTEX
  5
242
100
AcDbEntity
  8
LAYER_1
 62
     7
100
AcDbVertex
100
AcDb2dVertex
 10
114.555282
 20
226.593232
 30
0.0
  0
VERTEX
  5
243
100
AcDbEntity
  8
LAYER_1
 62
     7
100
AcDbVertex
100
AcDb2dVertex
 10
114.555282
 20
237.25563
 30
0.0
  0
VERTEX
  5
244
100
AcDbEntity
  8
LAYER_1
 62
     7
100
AcDbVertex
100
AcDb2dVertex
 10
5.022432
 20
237.25563
 30
0.0
  0
VERTEX
  5
245
100
AcDbEntity
  8
LAYER_1
 62
     7
100
AcDbVertex
100
AcDb2dVertex
 10
5.022432
 20
226.593232
 30
0.0
  0
SEQEND
  5
246
100
AcDbEntity
  8
LAYER_1
 62
     7
  0
MTEXT
  5
240
100
AcDbEntity
  8
LAYER_1
 62
     7
100
AcDbMText
 10
9.341549
 20
234.92533
 30
0.0
 40
5.313505
 41
0.0
 71
     1
 72
     2
  1
\W0.50;\fMS Gothic|b0|i0|c128;■乾式保護工法標準納まり詳細図
  7
KANJISTD
210
0.0
220
0.0
230
1.0
 11
1.000001
 21
0.0
 31
0.0
 73
     1
 44
1.0
  0
LINE
  5
23F
100
AcDbEntity
  8
LAYER_1
 62
     7
100
AcDbLine
 10
78.15802
 20
175.413238
 30
0.0
 11
78.15802
 21
176.843986
 31
0.0
  0
SPLINE
  5
23E
100
AcDbEntity
  8
LAYER_1
 62
     7
100
AcDbSpline
210
0.0
220
0.0
230
1.0
 70
     8
 71
     3
 72
    17
 73
    13
 74
     0
 42
0.00000001
 43
0.00000001
 40
0.0
 40
0.0
 40
0.0
 40
0.0
 40
1.0
 40
1.0
 40
1.0
 40
2.0
 40
2.0
 40
2.0
 40
3.0
 40
3.0
 40
3.0
 40
4.0
 40
4.0
 40
4.0
 40
4.0
 10
67.464788140190961
 20
162.28794080946179
 30
0.0
 10
67.263422309027774
 20
162.28690728081597
 30
0.0
 10
67.100297037760413
 20
162.12429877387152
 30
0.0
 10
67.098402235243043
 20
161.92293294270831
 30
0.0
 10
67.192453342013877
 20
161.6803982204861
 30
0.0
 10
67.46392686631944
 20
161.55844184027777
 30
0.0
 10
67.707667371961804
 20
161.64904785156247
 30
0.0
 10
67.785009765624991
 20
161.71915554470485
 30
0.0
 10
67.829279242621524
 20
161.81854654947915
 30
0.0
 10
67.829968261718747
 20
161.92293294270831
 30
0.0
 10
67.828417968749989
 20
162.12395426432289
 30
0.0
 10
67.665809461805551
 20
162.28656277126734
 30
0.0
 10
67.464788140190961
 20
162.28794080946179
 30
0.0
  0
MTEXT
  5
23D
100
AcDbEntity
  8
LAYER_1
 62
     7
100
AcDbMText
 10
19.114596
 20
204.504208
 30
0.0
 40
2.656753
 41
0.0
 71
     1
 72
     2
  1
\W0.50;\fMS Gothic|b0|i0|c128;ゴムアスファルト系シール材
  7
KANJISTD
210
0.0
220
0.0
230
1.0
 11
1.000001
 21
0.0
 31
0.0
 73
     1
 44
1.0
  0
MTEXT
  5
23C
100
AcDbEntity
  8
LAYER_1
 62
     7
100
AcDbMText
 10
66.267617
 20
207.424788
 30
0.0
 40
2.656753
 41
0.0
 71
     1
 72
     2
  1
\W0.50;\fMS Gothic|b0|i0|c128;(120～150)
  7
KANJISTD
210
0.0
220
0.0
230
1.0
 11
1.000001
 21
0.0
 31
0.0
 73
     1
 44
1.0
  0
POLYLINE
  5
237
100
AcDbEntity
  8
LAYER_1
 62
     7
100
AcDb2dPolyline
 66
     1
 10
0.0
 20
0.0
 30
0.0
  0
VERTEX
  5
238
100
AcDbEntity
  8
LAYER_1
 62
     7
100
AcDbVertex
100
AcDb2dVertex
 10
64.791222
 20
172.057715
 30
0.0
  0
VERTEX
  5
239
100
AcDbEntity
  8
LAYER_1
 62
     7
100
AcDbVertex
100
AcDb2dVertex
 10
64.791222
 20
203.741225
 30
0.0
  0
VERTEX
  5
23A
100
AcDbEntity
  8
LAYER_1
 62
     7
100
AcDbVertex
100
AcDb2dVertex
 10
83.723916
 20
203.741225
 30
0.0
  0
SEQEND
  5
23B
100
AcDbEntity
  8
LAYER_1
 62
     7
  0
LINE
  5
236
100
AcDbEntity
  8
LAYER_1
 62
     7
100
AcDbLine
 10
83.666211
 20
188.408138
 30
0.0
 11
83.666211
 21
203.741225
 31
0.0
  0
POLYLINE
  5
231
100
AcDbEntity
  8
LAYER_1
 62
     7
100
AcDb2dPolyline
 66
     1
 10
0.0
 20
0.0
 30
0.0
  0
VERTEX
  5
232
100
AcDbEntity
  8
LAYER_1
 62
     7
100
AcDbVertex
100
AcDb2dVertex
 10
81.755044
 20
176.329806
 30
0.0
  0
VERTEX
  5
233
100
AcDbEntity
  8
LAYER_1
 62
     7
100
AcDbVertex
100
AcDb2dVertex
 10
83.699801
 20
176.85191
 30
0.0
  0
VERTEX
  5
234
100
AcDbEntity
  8
LAYER_1
 62
     7
100
AcDbVertex
100
AcDb2dVertex
 10
81.755044
 20
177.372808
 30
0.0
  0
SEQEND
  5
235
100
AcDbEntity
  8
LAYER_1
 62
     7
  0
LINE
  5
230
100
AcDbEntity
  8
LAYER_1
 62
     7
100
AcDbLine
 10
78.246559
 20
176.85191
 30
0.0
 11
83.699801
 21
176.85191
 31
0.0
  0
POLYLINE
  5
22A
100
AcDbEntity
  8
LAYER_1
 62
     7
100
AcDb2dPolyline
 66
     1
 10
0.0
 20
0.0
 30
0.0
  0
VERTEX
  5
22B
100
AcDbEntity
  8
LAYER_1
 62
     7
100
AcDbVertex
100
AcDb2dVertex
 10
185.610376
 20
83.982471
 30
0.0
  0
VERTEX
  5
22C
100
AcDbEntity
  8
LAYER_1
 62
     7
100
AcDbVertex
100
AcDb2dVertex
 10
64.828773
 20
83.982471
 30
0.0
  0
VERTEX
  5
22D
100
AcDbEntity
  8
LAYER_1
 62
     7
100
AcDbVertex
100
AcDb2dVertex
 10
64.826017
 20
171.22159
 30
0.0
  0
VERTEX
  5
22E
100
AcDbEntity
  8
LAYER_1
 62
     7
100
AcDbVertex
100
AcDb2dVertex
 10
74.020116
 20
171.22159
 30
0.0
  0
SEQEND
  5
22F
100
AcDbEntity
  8
LAYER_1
 62
     7
  0
POLYLINE
  5
21D
100
AcDbEntity
  8
LAYER_1
 62
     7
100
AcDb2dPolyline
 66
     1
 10
0.0
 20
0.0
 30
0.0
  0
VERTEX
  5
21E
100
AcDbEntity
  8
LAYER_1
 62
     7
100
AcDbVertex
100
AcDb2dVertex
 10
78.207629
 20
171.22159
 30
0.0
  0
VERTEX
  5
21F
100
AcDbEntity
  8
LAYER_1
 62
     7
100
AcDbVertex
100
AcDb2dVertex
 10
81.3766
 20
171.225552
 30
0.0
  0
VERTEX
  5
220
100
AcDbEntity
  8
LAYER_1
 62
     7
100
AcDbVertex
100
AcDb2dVertex
 10
83.566992
 20
173.397168
 30
0.0
  0
VERTEX
  5
221
100
AcDbEntity
  8
LAYER_1
 62
     7
100
AcDbVertex
100
AcDb2dVertex
 10
83.599204
 20
191.30064
 30
0.0
  0
VERTEX
  5
222
100
AcDbEntity
  8
LAYER_1
 62
     7
100
AcDbVertex
100
AcDb2dVertex
 10
80.878612
 20
194.125963
 30
0.0
  0
VERTEX
  5
223
100
AcDbEntity
  8
LAYER_1
 62
     7
100
AcDbVertex
100
AcDb2dVertex
 10
43.9229
 20
197.602064
 30
0.0
  0
VERTEX
  5
224
100
AcDbEntity
  8
LAYER_1
 62
     7
100
AcDbVertex
100
AcDb2dVertex
 10
43.95649
 20
193.939239
 30
0.0
  0
VERTEX
  5
225
100
AcDbEntity
  8
LAYER_1
 62
     7
100
AcDbVertex
100
AcDb2dVertex
 10
37.954272
 20
191.899226
 30
0.0
  0
VERTEX
  5
226
100
AcDbEntity
  8
LAYER_1
 62
     7
100
AcDbVertex
100
AcDb2dVertex
 10
37.955478
 20
176.093644
 30
0.0
  0
VERTEX
  5
227
100
AcDbEntity
  8
LAYER_1
 62
     7
100
AcDbVertex
100
AcDb2dVertex
 10
37.959612
 20
151.412291
 30
0.0
  0
VERTEX
  5
228
100
AcDbEntity
  8
LAYER_1
 62
     7
100
AcDbVertex
100
AcDb2dVertex
 10
37.973048
 20
59.262188
 30
0.0
  0
SEQEND
  5
229
100
AcDbEntity
  8
LAYER_1
 62
     7
  0
POLYLINE
  5
218
100
AcDbEntity
  8
LAYER_1
 62
     7
100
AcDb2dPolyline
 66
     1
 10
0.0
 20
0.0
 30
0.0
  0
VERTEX
  5
219
100
AcDbEntity
  8
LAYER_1
 62
     7
100
AcDbVertex
100
AcDb2dVertex
 10
66.735978
 20
203.125241
 30
0.0
  0
VERTEX
  5
21A
100
AcDbEntity
  8
LAYER_1
 62
     7
100
AcDbVertex
100
AcDb2dVertex
 10
64.791222
 20
203.647346
 30
0.0
  0
VERTEX
  5
21B
100
AcDbEntity
  8
LAYER_1
 62
     7
100
AcDbVertex
100
AcDb2dVertex
 10
66.735978
 20
204.168072
 30
0.0
  0
SEQEND
  5
21C
100
AcDbEntity
  8
LAYER_1
 62
     7
  0
POLYLINE
  5
213
100
AcDbEntity
  8
LAYER_1
 62
     7
100
AcDb2dPolyline
 66
     1
 10
0.0
 20
0.0
 30
0.0
  0
VERTEX
  5
214
100
AcDbEntity
  8
LAYER_1
 62
     7
100
AcDbVertex
100
AcDb2dVertex
 10
81.809993
 20
203.23135
 30
0.0
  0
VERTEX
  5
215
100
AcDbEntity
  8
LAYER_1
 62
     7
100
AcDbVertex
100
AcDb2dVertex
 10
83.754922
 20
203.752077
 30
0.0
  0
VERTEX
  5
216
100
AcDbEntity
  8
LAYER_1
 62
     7
100
AcDbVertex
100
AcDb2dVertex
 10
81.809993
 20
204.272803
 30
0.0
  0
SEQEND
  5
217
100
AcDbEntity
  8
LAYER_1
 62
     7
  0
LINE
  5
212
100
AcDbEntity
  8
LAYER_1
 62
     7
100
AcDbLine
 10
97.83296
 20
172.739499
 30
0.0
 11
97.83296
 21
185.433987
 31
0.0
  0
LINE
  5
211
100
AcDbEntity
  8
LAYER_1
 62
     7
100
AcDbLine
 10
160.220367
 20
198.003418
 30
0.0
 11
160.220367
 21
202.648785
 31
0.0
  0
LINE
  5
210
100
AcDbEntity
  8
LAYER_1
 62
     7
100
AcDbLine
 10
146.33422
 20
103.245378
 30
0.0
 11
150.906896
 21
103.245378
 31
0.0
  0
POLYLINE
  5
20B
100
AcDbEntity
  8
LAYER_1
 62
     7
100
AcDb2dPolyline
 66
     1
 10
0.0
 20
0.0
 30
0.0
  0
VERTEX
  5
20C
100
AcDbEntity
  8
LAYER_1
 62
     7
100
AcDbVertex
100
AcDb2dVertex
 10
148.278977
 20
102.723101
 30
0.0
  0
VERTEX
  5
20D
100
AcDbEntity
  8
LAYER_1
 62
     7
100
AcDbVertex
100
AcDb2dVertex
 10
146.33422
 20
103.245378
 30
0.0
  0
VERTEX
  5
20E
100
AcDbEntity
  8
LAYER_1
 62
     7
100
AcDbVertex
100
AcDb2dVertex
 10
148.278977
 20
103.765932
 30
0.0
  0
SEQEND
  5
20F
100
AcDbEntity
  8
LAYER_1
 62
     7
  0
LINE
  5
20A
100
AcDbEntity
  8
LAYER_1
 62
     7
100
AcDbLine
 10
142.806787
 20
103.343218
 30
0.0
 11
138.234112
 21
103.343218
 31
0.0
  0
LINE
  5
209
100
AcDbEntity
  8
LAYER_1
 62
     7
100
AcDbLine
 10
172.313341
 20
123.646544
 30
0.0
 11
174.681155
 21
123.646544
 31
0.0
  0
LINE
  5
208
100
AcDbEntity
  8
LAYER_1
 62
     7
100
AcDbLine
 10
172.313341
 20
118.279085
 30
0.0
 11
174.681155
 21
118.279085
 31
0.0
  0
LINE
  5
207
100
AcDbEntity
  8
LAYER_1
 62
     7
100
AcDbLine
 10
172.313341
 20
112.909215
 30
0.0
 11
174.681155
 21
112.909215
 31
0.0
  0
POLYLINE
  5
202
100
AcDbEntity
  8
LAYER_1
 62
     7
100
AcDb2dPolyline
 66
     1
 10
0.0
 20
0.0
 30
0.0
  0
VERTEX
  5
203
100
AcDbEntity
  8
LAYER_1
 62
     7
100
AcDbVertex
100
AcDb2dVertex
 10
172.304039
 20
84.917814
 30
0.0
  0
VERTEX
  5
204
100
AcDbEntity
  8
LAYER_1
 62
     7
100
AcDbVertex
100
AcDb2dVertex
 10
172.304039
 20
129.172133
 30
0.0
  0
VERTEX
  5
205
100
AcDbEntity
  8
LAYER_1
 62
     7
100
AcDbVertex
100
AcDb2dVertex
 10
174.671509
 20
129.172133
 30
0.0
  0
SEQEND
  5
206
100
AcDbEntity
  8
LAYER_1
 62
     7
  0
SPLINE
  5
201
100
AcDbEntity
  8
LAYER_1
 62
     7
100
AcDbSpline
210
0.0
220
0.0
230
1.0
 70
     8
 71
     3
 72
    20
 73
    16
 74
     0
 42
0.00000001
 43
0.00000001
 40
0.0
 40
0.0
 40
0.0
 40
0.0
 40
1.0
 40
1.0
 40
1.0
 40
2.0
 40
2.0
 40
2.0
 40
3.0
 40
3.0
 40
3.0
 40
4.0
 40
4.0
 40
4.0
 40
5.0
 40
5.0
 40
5.0
 40
5.0
 10
139.87948947482639
 20
93.894354926215271
 30
0.0
 10
139.79060601128472
 20
93.894354926215271
 30
0.0
 10
139.70516764322915
 20
93.92983940972222
 30
0.0
 10
139.64246690538192
 20
93.992540147569443
 30
0.0
 10
139.5794216579861
 20
94.055585394965263
 30
0.0
 10
139.54393717447914
 20
94.141023763020826
 30
0.0
 10
139.54393717447914
 20
94.229907226562489
 30
0.0
 10
139.63454318576387
 20
94.45211588541666
 30
0.0
 10
139.88706868489581
 20
94.560291883680549
 30
0.0
 10
140.11031087239581
 20
94.472786458333331
 30
0.0
 10
140.17645670572915
 20
94.409052191840274
 30
0.0
 10
140.21400824652775
 20
94.321546766493043
 30
0.0
 10
140.2150417751736
 20
94.229907226562489
 30
0.0
 10
140.21366373697916
 20
94.045250108506934
 30
0.0
 10
140.06414659288194
 20
93.895732964409717
 30
0.0
 10
139.87948947482639
 20
93.894354926215271
 30
0.0
  0
SPLINE
  5
200
100
AcDbEntity
  8
LAYER_1
 62
     7
100
AcDbSpline
210
0.0
220
0.0
230
1.0
 70
     8
 71
     3
 72
    17
 73
    13
 74
     0
 42
0.00000001
 43
0.00000001
 40
0.0
 40
0.0
 40
0.0
 40
0.0
 40
1.0
 40
1.0
 40
1.0
 40
2.0
 40
2.0
 40
2.0
 40
3.0
 40
3.0
 40
3.0
 40
4.0
 40
4.0
 40
4.0
 40
4.0
 10
144.22030978732639
 20
98.312689887152771
 30
0.0
 10
144.03530815972221
 20
98.314067925347217
 30
0.0
 10
143.88579101562499
 20
98.463585069444434
 30
0.0
 10
143.88475748697914
 20
98.648242187499989
 30
0.0
 10
143.97536349826387
 20
98.87045084635416
 30
0.0
 10
144.22754448784721
 20
98.978626844618049
 30
0.0
 10
144.45113118489581
 20
98.891465928819429
 30
0.0
 10
144.51693250868055
 20
98.827387152777774
 30
0.0
 10
144.55482855902775
 20
98.739881727430543
 30
0.0
 10
144.5558620876736
 20
98.648242187499989
 30
0.0
 10
144.55448404947916
 20
98.463585069444434
 30
0.0
 10
144.40496690538194
 20
98.314067925347217
 30
0.0
 10
144.22030978732639
 20
98.312689887152771
 30
0.0
  0
SPLINE
  5
1FF
100
AcDbEntity
  8
LAYER_1
 62
     7
100
AcDbSpline
210
0.0
220
0.0
230
1.0
 70
     8
 71
     3
 72
    17
 73
    13
 74
     0
 42
0.00000001
 43
0.00000001
 40
0.0
 40
0.0
 40
0.0
 40
0.0
 40
1.0
 40
1.0
 40
1.0
 40
2.0
 40
2.0
 40
2.0
 40
3.0
 40
3.0
 40
3.0
 40
4.0
 40
4.0
 40
4.0
 40
4.0
 10
172.38189832899303
 20
94.54513346354166
 30
0.0
 10
172.19724121093748
 20
94.546511501736106
 30
0.0
 10
172.04772406684026
 20
94.696028645833323
 30
0.0
 10
172.04634602864581
 20
94.881030273437489
 30
0.0
 10
172.13695203993055
 20
95.102894422743049
 30
0.0
 10
172.38947753906248
 20
95.211414930555549
 30
0.0
 10
172.61271972656249
 20
95.123909505208331
 30
0.0
 10
172.6785210503472
 20
95.059830729166663
 30
0.0
 10
172.71641710069443
 20
94.972669813368043
 30
0.0
 10
172.71745062934025
 20
94.881030273437489
 30
0.0
 10
172.71607259114583
 20
94.696028645833323
 30
0.0
 10
172.56655544704859
 20
94.546511501736106
 30
0.0
 10
172.38189832899303
 20
94.54513346354166
 30
0.0
  0
SPLINE
  5
1FE
100
AcDbEntity
  8
LAYER_1
 62
     7
100
AcDbSpline
210
0.0
220
0.0
230
1.0
 70
     8
 71
     3
 72
    20
 73
    16
 74
     0
 42
0.00000001
 43
0.00000001
 40
0.0
 40
0.0
 40
0.0
 40
0.0
 40
1.0
 40
1.0
 40
1.0
 40
2.0
 40
2.0
 40
2.0
 40
3.0
 40
3.0
 40
3.0
 40
4.0
 40
4.0
 40
4.0
 40
5.0
 40
5.0
 40
5.0
 40
5.0
 10
172.30266113281249
 20
89.555257161458329
 30
0.0
 10
172.21377766927083
 20
89.555257161458329
 30
0.0
 10
172.12833930121525
 20
89.590397135416652
 30
0.0
 10
172.06529405381943
 20
89.653442382812486
 30
0.0
 10
172.00259331597221
 20
89.71648763020832
 30
0.0
 10
171.96710883246527
 20
89.801581488715271
 30
0.0
 10
171.96710883246527
 20
89.890464952256934
 30
0.0
 10
172.05771484374998
 20
90.112673611111106
 30
0.0
 10
172.31024034288194
 20
90.220849609374994
 30
0.0
 10
172.53348253038192
 20
90.133688693576374
 30
0.0
 10
172.59928385416666
 20
90.069954427083331
 30
0.0
 10
172.63717990451389
 20
89.9824490017361
 30
0.0
 10
172.63821343315971
 20
89.890464952256934
 30
0.0
 10
172.63683539496526
 20
89.70580783420138
 30
0.0
 10
172.48731825086804
 20
89.556290690104163
 30
0.0
 10
172.30266113281249
 20
89.555257161458329
 30
0.0
  0
SPLINE
  5
1FD
100
AcDbEntity
  8
LAYER_1
 62
     7
100
AcDbSpline
210
0.0
220
0.0
230
1.0
 70
     8
 71
     3
 72
    17
 73
    13
 74
     0
 42
0.00000001
 43
0.00000001
 40
0.0
 40
0.0
 40
0.0
 40
0.0
 40
1.0
 40
1.0
 40
1.0
 40
2.0
 40
2.0
 40
2.0
 40
3.0
 40
3.0
 40
3.0
 40
4.0
 40
4.0
 40
4.0
 40
4.0
 10
172.26235351562499
 20
86.921826171874997
 30
0.0
 10
172.07769639756944
 20
86.923204210069443
 30
0.0
 10
171.92817925347219
 20
87.072376844618049
 30
0.0
 10
171.92680121527775
 20
87.257378472222214
 30
0.0
 10
172.01775173611111
 20
87.479931640624997
 30
0.0
 10
172.27096625434027
 20
87.588107638888886
 30
0.0
 10
172.49455295138887
 20
87.500257703993043
 30
0.0
 10
172.56000976562498
 20
87.436178927951374
 30
0.0
 10
172.59721679687499
 20
87.348673502604157
 30
0.0
 10
172.59790581597221
 20
87.257378472222214
 30
0.0
 10
172.59652777777777
 20
87.072376844618049
 30
0.0
 10
172.44701063368055
 20
86.923204210069443
 30
0.0
 10
172.26235351562499
 20
86.921826171874997
 30
0.0
  0
SPLINE
  5
1FC
100
AcDbEntity
  8
LAYER_1
 62
     7
100
AcDbSpline
210
0.0
220
0.0
230
1.0
 70
     8
 71
     3
 72
    20
 73
    16
 74
     0
 42
0.00000001
 43
0.00000001
 40
0.0
 40
0.0
 40
0.0
 40
0.0
 40
1.0
 40
1.0
 40
1.0
 40
2.0
 40
2.0
 40
2.0
 40
3.0
 40
3.0
 40
3.0
 40
4.0
 40
4.0
 40
4.0
 40
5.0
 40
5.0
 40
5.0
 40
5.0
 10
172.31334092881943
 20
84.582261827256943
 30
0.0
 10
172.12868381076387
 20
84.583639865451374
 30
0.0
 10
171.97916666666666
 20
84.733157009548606
 30
0.0
 10
171.97778862847221
 20
84.91781412760416
 30
0.0
 10
171.97916666666666
 20
85.102471245659714
 30
0.0
 10
172.12868381076387
 20
85.251988389756931
 30
0.0
 10
172.31334092881943
 20
85.253366427951377
 30
0.0
 10
172.40256890190972
 20
85.253366427951377
 30
0.0
 10
172.48766276041664
 20
85.217881944444443
 30
0.0
 10
172.55070800781249
 20
85.15518120659722
 30
0.0
 10
172.61375325520831
 20
85.092135959201386
 30
0.0
 10
172.64889322916665
 20
85.006697591145823
 30
0.0
 10
172.64889322916665
 20
84.91781412760416
 30
0.0
 10
172.6475151909722
 20
84.733157009548606
 30
0.0
 10
172.49834255642361
 20
84.583639865451374
 30
0.0
 10
172.31334092881943
 20
84.582261827256943
 30
0.0
  0
POLYLINE
  5
1F7
100
AcDbEntity
  8
LAYER_1
 62
     7
100
AcDb2dPolyline
 66
     1
 10
0.0
 20
0.0
 30
0.0
  0
VERTEX
  5
1F8
100
AcDbEntity
  8
LAYER_1
 62
     7
100
AcDbVertex
100
AcDb2dVertex
 10
67.416557
 20
161.906741
 30
0.0
  0
VERTEX
  5
1F9
100
AcDbEntity
  8
LAYER_1
 62
     7
100
AcDbVertex
100
AcDb2dVertex
 10
59.613071
 20
148.259512
 30
0.0
  0
VERTEX
  5
1FA
100
AcDbEntity
  8
LAYER_1
 62
     7
100
AcDbVertex
100
AcDb2dVertex
 10
57.324666
 20
148.259512
 30
0.0
  0
SEQEND
  5
1FB
100
AcDbEntity
  8
LAYER_1
 62
     7
  0
POLYLINE
  5
1F2
100
AcDbEntity
  8
LAYER_1
 62
     7
100
AcDb2dPolyline
 66
     1
 10
0.0
 20
0.0
 30
0.0
  0
VERTEX
  5
1F3
100
AcDbEntity
  8
LAYER_1
 62
     7
100
AcDbVertex
100
AcDb2dVertex
 10
75.591768
 20
175.150033
 30
0.0
  0
VERTEX
  5
1F4
100
AcDbEntity
  8
LAYER_1
 62
     7
100
AcDbVertex
100
AcDb2dVertex
 10
57.029249
 20
207.949064
 30
0.0
  0
VERTEX
  5
1F5
100
AcDbEntity
  8
LAYER_1
 62
     7
100
AcDbVertex
100
AcDb2dVertex
 10
54.740845
 20
207.949064
 30
0.0
  0
SEQEND
  5
1F6
100
AcDbEntity
  8
LAYER_1
 62
     7
  0
SPLINE
  5
1F1
100
AcDbEntity
  8
LAYER_1
 62
     7
100
AcDbSpline
210
0.0
220
0.0
230
1.0
 70
     8
 71
     3
 72
    17
 73
    13
 74
     0
 42
0.00000001
 43
0.00000001
 40
0.0
 40
0.0
 40
0.0
 40
0.0
 40
1.0
 40
1.0
 40
1.0
 40
2.0
 40
2.0
 40
2.0
 40
3.0
 40
3.0
 40
3.0
 40
4.0
 40
4.0
 40
4.0
 40
4.0
 10
75.464299858940961
 20
174.92058919270832
 30
0.0
 10
75.263106282552073
 20
174.92196723090277
 30
0.0
 10
75.100497775607636
 20
175.08457573784722
 30
0.0
 10
75.09911973741319
 20
175.28559705946179
 30
0.0
 10
75.192826334635413
 20
175.52778727213541
 30
0.0
 10
75.463783094618051
 20
175.64974365234374
 30
0.0
 10
75.707179090711804
 20
175.55948215060764
 30
0.0
 10
75.784865993923603
 20
175.48954671223956
 30
0.0
 10
75.829652235243046
 20
175.39015570746525
 30
0.0
 10
75.83068576388888
 20
175.28559705946179
 30
0.0
 10
75.828790961371524
 20
175.08423122829859
 30
0.0
 10
75.665665690104163
 20
174.92162272135414
 30
0.0
 10
75.464299858940961
 20
174.92058919270832
 30
0.0
  0
POLYLINE
  5
1EC
100
AcDbEntity
  8
LAYER_1
 62
     7
100
AcDb2dPolyline
 66
     1
 10
0.0
 20
0.0
 30
0.0
  0
VERTEX
  5
1ED
100
AcDbEntity
  8
LAYER_1
 62
     7
100
AcDbVertex
100
AcDb2dVertex
 10
67.228627
 20
168.377492
 30
0.0
  0
VERTEX
  5
1EE
100
AcDbEntity
  8
LAYER_1
 62
     7
100
AcDbVertex
100
AcDb2dVertex
 10
47.588482
 20
203.095614
 30
0.0
  0
VERTEX
  5
1EF
100
AcDbEntity
  8
LAYER_1
 62
     7
100
AcDbVertex
100
AcDb2dVertex
 10
45.299905
 20
203.095614
 30
0.0
  0
SEQEND
  5
1F0
100
AcDbEntity
  8
LAYER_1
 62
     7
  0
SPLINE
  5
1EB
100
AcDbEntity
  8
LAYER_1
 62
     7
100
AcDbSpline
210
0.0
220
0.0
230
1.0
 70
     8
 71
     3
 72
    17
 73
    13
 74
     0
 42
0.00000001
 43
0.00000001
 40
0.0
 40
0.0
 40
0.0
 40
0.0
 40
1.0
 40
1.0
 40
1.0
 40
2.0
 40
2.0
 40
2.0
 40
3.0
 40
3.0
 40
3.0
 40
4.0
 40
4.0
 40
4.0
 40
4.0
 10
67.276858181423606
 20
167.9962917751736
 30
0.0
 10
67.075836859809016
 20
167.99766981336805
 30
0.0
 10
66.913228352864579
 20
168.16027832031247
 30
0.0
 10
66.911850314670133
 20
168.36129964192708
 30
0.0
 10
67.005556911892356
 20
168.60348985460067
 30
0.0
 10
67.276341417100681
 20
168.725446234809
 30
0.0
 10
67.519737413194434
 20
168.63518473307289
 30
0.0
 10
67.597424316406247
 20
168.56524929470484
 30
0.0
 10
67.642382812499989
 20
168.46585828993054
 30
0.0
 10
67.643244086371524
 20
168.36129964192708
 30
0.0
 10
67.641521538628467
 20
168.15993381076387
 30
0.0
 10
67.478396267361106
 20
167.99732530381942
 30
0.0
 10
67.276858181423606
 20
167.9962917751736
 30
0.0
  0
POLYLINE
  5
1E6
100
AcDbEntity
  8
LAYER_1
 62
     7
100
AcDb2dPolyline
 66
     1
 10
0.0
 20
0.0
 30
0.0
  0
VERTEX
  5
1E7
100
AcDbEntity
  8
LAYER_1
 62
     7
100
AcDbVertex
100
AcDb2dVertex
 10
79.468018
 20
194.272207
 30
0.0
  0
VERTEX
  5
1E8
100
AcDbEntity
  8
LAYER_1
 62
     7
100
AcDbVertex
100
AcDb2dVertex
 10
86.719771
 20
207.095369
 30
0.0
  0
VERTEX
  5
1E9
100
AcDbEntity
  8
LAYER_1
 62
     7
100
AcDbVertex
100
AcDb2dVertex
 10
89.008176
 20
207.095369
 30
0.0
  0
SEQEND
  5
1EA
100
AcDbEntity
  8
LAYER_1
 62
     7
  0
SPLINE
  5
1E5
100
AcDbEntity
  8
LAYER_1
 62
     7
100
AcDbSpline
210
0.0
220
0.0
230
1.0
 70
     8
 71
     3
 72
    17
 73
    13
 74
     0
 42
0.00000001
 43
0.00000001
 40
0.0
 40
0.0
 40
0.0
 40
0.0
 40
1.0
 40
1.0
 40
1.0
 40
2.0
 40
2.0
 40
2.0
 40
3.0
 40
3.0
 40
3.0
 40
4.0
 40
4.0
 40
4.0
 40
4.0
 10
79.662493218315959
 20
193.98230251736109
 30
0.0
 10
79.740180121527771
 20
194.05223795572914
 30
0.0
 10
79.784966362847214
 20
194.15145670572915
 30
0.0
 10
79.785999891493049
 20
194.25601535373261
 30
0.0
 10
79.784277343749991
 20
194.45738118489581
 30
0.0
 10
79.620979817708331
 20
194.61998969184026
 30
0.0
 10
79.41961398654513
 20
194.62119547526041
 30
0.0
 10
79.218592664930554
 20
194.61964518229166
 30
0.0
 10
79.055984157986103
 20
194.45703667534721
 30
0.0
 10
79.054606119791657
 20
194.25601535373261
 30
0.0
 10
79.14831271701388
 20
194.01399739583331
 30
0.0
 10
79.41909722222222
 20
193.89204101562498
 30
0.0
 10
79.662493218315959
 20
193.98230251736109
 30
0.0
  0
SPLINE
  5
1E4
100
AcDbEntity
  8
LAYER_1
 62
     7
100
AcDbSpline
210
0.0
220
0.0
230
1.0
 70
     8
 71
     3
 72
    17
 73
    13
 74
     0
 42
0.00000001
 43
0.00000001
 40
0.0
 40
0.0
 40
0.0
 40
0.0
 40
1.0
 40
1.0
 40
1.0
 40
2.0
 40
2.0
 40
2.0
 40
3.0
 40
3.0
 40
3.0
 40
4.0
 40
4.0
 40
4.0
 40
4.0
 10
76.216019694010413
 20
132.32232801649303
 30
0.0
 10
76.293706597222211
 20
132.39226345486111
 30
0.0
 10
76.338492838541654
 20
132.49148220486109
 30
0.0
 10
76.339526367187489
 20
132.59621310763887
 30
0.0
 10
76.337631564670133
 20
132.79775119357637
 30
0.0
 10
76.174334038628459
 20
132.96035970052083
 30
0.0
 10
75.972968207465271
 20
132.96139322916665
 30
0.0
 10
75.772119140624994
 20
132.9596706814236
 30
0.0
 10
75.609338378906244
 20
132.79706217447915
 30
0.0
 10
75.607960340711799
 20
132.59621310763887
 30
0.0
 10
75.70183919270832
 20
132.35402289496525
 30
0.0
 10
75.97262369791666
 20
132.23206651475692
 30
0.0
 10
76.216019694010413
 20
132.32232801649303
 30
0.0
  0
POLYLINE
  5
1DF
100
AcDbEntity
  8
LAYER_1
 62
     7
100
AcDb2dPolyline
 66
     1
 10
0.0
 20
0.0
 30
0.0
  0
VERTEX
  5
1E0
100
AcDbEntity
  8
LAYER_1
 62
     7
100
AcDbVertex
100
AcDb2dVertex
 10
67.848744
 20
98.974493
 30
0.0
  0
VERTEX
  5
1E1
100
AcDbEntity
  8
LAYER_1
 62
     7
100
AcDbVertex
100
AcDb2dVertex
 10
86.858092
 20
131.985398
 30
0.0
  0
VERTEX
  5
1E2
100
AcDbEntity
  8
LAYER_1
 62
     7
100
AcDbVertex
100
AcDb2dVertex
 10
89.146324
 20
131.985398
 30
0.0
  0
SEQEND
  5
1E3
100
AcDbEntity
  8
LAYER_1
 62
     7
  0
POLYLINE
  5
1DA
100
AcDbEntity
  8
LAYER_1
 62
     7
100
AcDb2dPolyline
 66
     1
 10
0.0
 20
0.0
 30
0.0
  0
VERTEX
  5
1DB
100
AcDbEntity
  8
LAYER_1
 62
     7
100
AcDbVertex
100
AcDb2dVertex
 10
76.158487
 20
98.015034
 30
0.0
  0
VERTEX
  5
1DC
100
AcDbEntity
  8
LAYER_1
 62
     7
100
AcDbVertex
100
AcDb2dVertex
 10
87.442208
 20
117.561127
 30
0.0
  0
VERTEX
  5
1DD
100
AcDbEntity
  8
LAYER_1
 62
     7
100
AcDbVertex
100
AcDb2dVertex
 10
89.731991
 20
117.561127
 30
0.0
  0
SEQEND
  5
1DE
100
AcDbEntity
  8
LAYER_1
 62
     7
  0
POLYLINE
  5
1D5
100
AcDbEntity
  8
LAYER_1
 62
     7
100
AcDb2dPolyline
 66
     1
 10
0.0
 20
0.0
 30
0.0
  0
VERTEX
  5
1D6
100
AcDbEntity
  8
LAYER_1
 62
     7
100
AcDbVertex
100
AcDb2dVertex
 10
76.185186
 20
132.539714
 30
0.0
  0
VERTEX
  5
1D7
100
AcDbEntity
  8
LAYER_1
 62
     7
100
AcDbVertex
100
AcDb2dVertex
 10
87.470113
 20
152.08598
 30
0.0
  0
VERTEX
  5
1D8
100
AcDbEntity
  8
LAYER_1
 62
     7
100
AcDbVertex
100
AcDb2dVertex
 10
89.758518
 20
152.08598
 30
0.0
  0
SEQEND
  5
1D9
100
AcDbEntity
  8
LAYER_1
 62
     7
  0
POLYLINE
  5
1D0
100
AcDbEntity
  8
LAYER_1
 62
     7
100
AcDb2dPolyline
 66
     1
 10
0.0
 20
0.0
 30
0.0
  0
VERTEX
  5
1D1
100
AcDbEntity
  8
LAYER_1
 62
     7
100
AcDbVertex
100
AcDb2dVertex
 10
77.931333
 20
103.074845
 30
0.0
  0
VERTEX
  5
1D2
100
AcDbEntity
  8
LAYER_1
 62
     7
100
AcDbVertex
100
AcDb2dVertex
 10
89.216432
 20
122.620939
 30
0.0
  0
VERTEX
  5
1D3
100
AcDbEntity
  8
LAYER_1
 62
     7
100
AcDbVertex
100
AcDb2dVertex
 10
91.504837
 20
122.620939
 30
0.0
  0
SEQEND
  5
1D4
100
AcDbEntity
  8
LAYER_1
 62
     7
  0
LINE
  5
1CF
100
AcDbEntity
  8
LAYER_1
 62
     7
100
AcDbLine
 10
75.825518
 20
77.978703
 30
0.0
 11
79.85473
 21
77.978703
 31
0.0
  0
POLYLINE
  5
1CA
100
AcDbEntity
  8
LAYER_1
 62
     7
100
AcDb2dPolyline
 66
     1
 10
0.0
 20
0.0
 30
0.0
  0
VERTEX
  5
1CB
100
AcDbEntity
  8
LAYER_1
 62
     7
100
AcDbVertex
100
AcDb2dVertex
 10
119.156207
 20
98.263081
 30
0.0
  0
VERTEX
  5
1CC
100
AcDbEntity
  8
LAYER_1
 62
     7
100
AcDbVertex
100
AcDb2dVertex
 10
119.677105
 20
100.206803
 30
0.0
  0
VERTEX
  5
1CD
100
AcDbEntity
  8
LAYER_1
 62
     7
100
AcDbVertex
100
AcDb2dVertex
 10
120.198003
 20
98.263081
 30
0.0
  0
SEQEND
  5
1CE
100
AcDbEntity
  8
LAYER_1
 62
     7
  0
POLYLINE
  5
1C5
100
AcDbEntity
  8
LAYER_1
 62
     7
100
AcDb2dPolyline
 66
     1
 10
0.0
 20
0.0
 30
0.0
  0
VERTEX
  5
1C6
100
AcDbEntity
  8
LAYER_1
 62
     7
100
AcDbVertex
100
AcDb2dVertex
 10
119.158963
 20
91.805938
 30
0.0
  0
VERTEX
  5
1C7
100
AcDbEntity
  8
LAYER_1
 62
     7
100
AcDbVertex
100
AcDb2dVertex
 10
119.680895
 20
89.861182
 30
0.0
  0
VERTEX
  5
1C8
100
AcDbEntity
  8
LAYER_1
 62
     7
100
AcDbVertex
100
AcDb2dVertex
 10
120.201793
 20
91.805938
 30
0.0
  0
SEQEND
  5
1C9
100
AcDbEntity
  8
LAYER_1
 62
     7
  0
POLYLINE
  5
1C0
100
AcDbEntity
  8
LAYER_1
 62
     7
100
AcDb2dPolyline
 66
     1
 10
0.0
 20
0.0
 30
0.0
  0
VERTEX
  5
1C1
100
AcDbEntity
  8
LAYER_1
 62
     7
100
AcDbVertex
100
AcDb2dVertex
 10
84.875612
 20
93.341417
 30
0.0
  0
VERTEX
  5
1C2
100
AcDbEntity
  8
LAYER_1
 62
     7
100
AcDbVertex
100
AcDb2dVertex
 10
85.396338
 20
95.286174
 30
0.0
  0
VERTEX
  5
1C3
100
AcDbEntity
  8
LAYER_1
 62
     7
100
AcDbVertex
100
AcDb2dVertex
 10
85.917064
 20
93.341417
 30
0.0
  0
SEQEND
  5
1C4
100
AcDbEntity
  8
LAYER_1
 62
     7
  0
POLYLINE
  5
1BB
100
AcDbEntity
  8
LAYER_1
 62
     7
100
AcDb2dPolyline
 66
     1
 10
0.0
 20
0.0
 30
0.0
  0
VERTEX
  5
1BC
100
AcDbEntity
  8
LAYER_1
 62
     7
100
AcDbVertex
100
AcDb2dVertex
 10
84.906445
 20
102.30969
 30
0.0
  0
VERTEX
  5
1BD
100
AcDbEntity
  8
LAYER_1
 62
     7
100
AcDbVertex
100
AcDb2dVertex
 10
85.427344
 20
100.364933
 30
0.0
  0
VERTEX
  5
1BE
100
AcDbEntity
  8
LAYER_1
 62
     7
100
AcDbVertex
100
AcDb2dVertex
 10
85.94807
 20
102.30969
 30
0.0
  0
SEQEND
  5
1BF
100
AcDbEntity
  8
LAYER_1
 62
     7
  0
POLYLINE
  5
1B6
100
AcDbEntity
  8
LAYER_1
 62
     7
100
AcDb2dPolyline
 66
     1
 10
0.0
 20
0.0
 30
0.0
  0
VERTEX
  5
1B7
100
AcDbEntity
  8
LAYER_1
 62
     7
100
AcDbVertex
100
AcDb2dVertex
 10
68.791667
 20
69.19681
 30
0.0
  0
VERTEX
  5
1B8
100
AcDbEntity
  8
LAYER_1
 62
     7
100
AcDbVertex
100
AcDb2dVertex
 10
66.846738
 20
69.719086
 30
0.0
  0
VERTEX
  5
1B9
100
AcDbEntity
  8
LAYER_1
 62
     7
100
AcDbVertex
100
AcDb2dVertex
 10
68.791667
 20
70.23964
 30
0.0
  0
SEQEND
  5
1BA
100
AcDbEntity
  8
LAYER_1
 62
     7
  0
POLYLINE
  5
1B1
100
AcDbEntity
  8
LAYER_1
 62
     7
100
AcDb2dPolyline
 66
     1
 10
0.0
 20
0.0
 30
0.0
  0
VERTEX
  5
1B2
100
AcDbEntity
  8
LAYER_1
 62
     7
100
AcDbVertex
100
AcDb2dVertex
 10
42.587409
 20
130.54397
 30
0.0
  0
VERTEX
  5
1B3
100
AcDbEntity
  8
LAYER_1
 62
     7
100
AcDbVertex
100
AcDb2dVertex
 10
40.642653
 20
131.066246
 30
0.0
  0
VERTEX
  5
1B4
100
AcDbEntity
  8
LAYER_1
 62
     7
100
AcDbVertex
100
AcDb2dVertex
 10
42.587409
 20
131.5868
 30
0.0
  0
SEQEND
  5
1B5
100
AcDbEntity
  8
LAYER_1
 62
     7
  0
POLYLINE
  5
1AC
100
AcDbEntity
  8
LAYER_1
 62
     7
100
AcDb2dPolyline
 66
     1
 10
0.0
 20
0.0
 30
0.0
  0
VERTEX
  5
1AD
100
AcDbEntity
  8
LAYER_1
 62
     7
100
AcDbVertex
100
AcDb2dVertex
 10
35.738215
 20
130.596335
 30
0.0
  0
VERTEX
  5
1AE
100
AcDbEntity
  8
LAYER_1
 62
     7
100
AcDbVertex
100
AcDb2dVertex
 10
37.683143
 20
131.117234
 30
0.0
  0
VERTEX
  5
1AF
100
AcDbEntity
  8
LAYER_1
 62
     7
100
AcDbVertex
100
AcDb2dVertex
 10
35.738215
 20
131.637788
 30
0.0
  0
SEQEND
  5
1B0
100
AcDbEntity
  8
LAYER_1
 62
     7
  0
POLYLINE
  5
1A7
100
AcDbEntity
  8
LAYER_1
 62
     7
100
AcDb2dPolyline
 66
     1
 10
0.0
 20
0.0
 30
0.0
  0
VERTEX
  5
1A8
100
AcDbEntity
  8
LAYER_1
 62
     7
100
AcDbVertex
100
AcDb2dVertex
 10
62.700049
 20
130.601847
 30
0.0
  0
VERTEX
  5
1A9
100
AcDbEntity
  8
LAYER_1
 62
     7
100
AcDbVertex
100
AcDb2dVertex
 10
64.644805
 20
131.122401
 30
0.0
  0
VERTEX
  5
1AA
100
AcDbEntity
  8
LAYER_1
 62
     7
100
AcDbVertex
100
AcDb2dVertex
 10
62.700049
 20
131.644678
 30
0.0
  0
SEQEND
  5
1AB
100
AcDbEntity
  8
LAYER_1
 62
     7
  0
POLYLINE
  5
1A2
100
AcDbEntity
  8
LAYER_1
 62
     7
100
AcDb2dPolyline
 66
     1
 10
0.0
 20
0.0
 30
0.0
  0
VERTEX
  5
1A3
100
AcDbEntity
  8
LAYER_1
 62
     7
100
AcDbVertex
100
AcDb2dVertex
 10
77.770275
 20
77.457804
 30
0.0
  0
VERTEX
  5
1A4
100
AcDbEntity
  8
LAYER_1
 62
     7
100
AcDbVertex
100
AcDb2dVertex
 10
75.825518
 20
77.978703
 30
0.0
  0
VERTEX
  5
1A5
100
AcDbEntity
  8
LAYER_1
 62
     7
100
AcDbVertex
100
AcDb2dVertex
 10
77.770275
 20
78.499601
 30
0.0
  0
SEQEND
  5
1A6
100
AcDbEntity
  8
LAYER_1
 62
     7
  0
LINE
  5
1A1
100
AcDbEntity
  8
LAYER_1
 62
     7
100
AcDbLine
 10
66.90186
 20
77.978703
 30
0.0
 11
62.872648
 21
77.978703
 31
0.0
  0
LINE
  5
1A0
100
AcDbEntity
  8
LAYER_1
 62
     7
100
AcDbLine
 10
85.387036
 20
95.326481
 30
0.0
 11
85.387036
 21
90.658377
 31
0.0
  0
POLYLINE
  5
19B
100
AcDbEntity
  8
LAYER_1
 62
     7
100
AcDb2dPolyline
 66
     1
 10
0.0
 20
0.0
 30
0.0
  0
VERTEX
  5
19C
100
AcDbEntity
  8
LAYER_1
 62
     7
100
AcDbVertex
100
AcDb2dVertex
 10
160.720939
 20
192.219964
 30
0.0
  0
VERTEX
  5
19D
100
AcDbEntity
  8
LAYER_1
 62
     7
100
AcDbVertex
100
AcDb2dVertex
 10
160.200385
 20
194.16472
 30
0.0
  0
VERTEX
  5
19E
100
AcDbEntity
  8
LAYER_1
 62
     7
100
AcDbVertex
100
AcDb2dVertex
 10
159.679487
 20
192.219964
 30
0.0
  0
SEQEND
  5
19F
100
AcDbEntity
  8
LAYER_1
 62
     7
  0
POLYLINE
  5
196
100
AcDbEntity
  8
LAYER_1
 62
     7
100
AcDb2dPolyline
 66
     1
 10
0.0
 20
0.0
 30
0.0
  0
VERTEX
  5
197
100
AcDbEntity
  8
LAYER_1
 62
     7
100
AcDbVertex
100
AcDb2dVertex
 10
98.360404
 20
169.20552
 30
0.0
  0
VERTEX
  5
198
100
AcDbEntity
  8
LAYER_1
 62
     7
100
AcDbVertex
100
AcDb2dVertex
 10
97.839678
 20
171.150449
 30
0.0
  0
VERTEX
  5
199
100
AcDbEntity
  8
LAYER_1
 62
     7
100
AcDbVertex
100
AcDb2dVertex
 10
97.318952
 20
169.20552
 30
0.0
  0
SEQEND
  5
19A
100
AcDbEntity
  8
LAYER_1
 62
     7
  0
POLYLINE
  5
191
100
AcDbEntity
  8
LAYER_1
 62
     7
100
AcDb2dPolyline
 66
     1
 10
0.0
 20
0.0
 30
0.0
  0
VERTEX
  5
192
100
AcDbEntity
  8
LAYER_1
 62
     7
100
AcDbVertex
100
AcDb2dVertex
 10
97.285362
 20
174.684428
 30
0.0
  0
VERTEX
  5
193
100
AcDbEntity
  8
LAYER_1
 62
     7
100
AcDbVertex
100
AcDb2dVertex
 10
97.806089
 20
172.739499
 30
0.0
  0
VERTEX
  5
194
100
AcDbEntity
  8
LAYER_1
 62
     7
100
AcDbVertex
100
AcDb2dVertex
 10
98.326987
 20
174.684428
 30
0.0
  0
SEQEND
  5
195
100
AcDbEntity
  8
LAYER_1
 62
     7
  0
POLYLINE
  5
18C
100
AcDbEntity
  8
LAYER_1
 62
     7
100
AcDb2dPolyline
 66
     1
 10
0.0
 20
0.0
 30
0.0
  0
VERTEX
  5
18D
100
AcDbEntity
  8
LAYER_1
 62
     7
100
AcDbVertex
100
AcDb2dVertex
 10
160.720939
 20
169.294059
 30
0.0
  0
VERTEX
  5
18E
100
AcDbEntity
  8
LAYER_1
 62
     7
100
AcDbVertex
100
AcDb2dVertex
 10
160.200385
 20
171.238988
 30
0.0
  0
VERTEX
  5
18F
100
AcDbEntity
  8
LAYER_1
 62
     7
100
AcDbVertex
100
AcDb2dVertex
 10
159.679487
 20
169.294059
 30
0.0
  0
SEQEND
  5
190
100
AcDbEntity
  8
LAYER_1
 62
     7
  0
POLYLINE
  5
187
100
AcDbEntity
  8
LAYER_1
 62
     7
100
AcDb2dPolyline
 66
     1
 10
0.0
 20
0.0
 30
0.0
  0
VERTEX
  5
188
100
AcDbEntity
  8
LAYER_1
 62
     7
100
AcDbVertex
100
AcDb2dVertex
 10
142.650035
 20
69.19681
 30
0.0
  0
VERTEX
  5
189
100
AcDbEntity
  8
LAYER_1
 62
     7
100
AcDbVertex
100
AcDb2dVertex
 10
144.594792
 20
69.719086
 30
0.0
  0
VERTEX
  5
18A
100
AcDbEntity
  8
LAYER_1
 62
     7
100
AcDbVertex
100
AcDb2dVertex
 10
142.650035
 20
70.23964
 30
0.0
  0
SEQEND
  5
18B
100
AcDbEntity
  8
LAYER_1
 62
     7
  0
POLYLINE
  5
182
100
AcDbEntity
  8
LAYER_1
 62
     7
100
AcDb2dPolyline
 66
     1
 10
0.0
 20
0.0
 30
0.0
  0
VERTEX
  5
183
100
AcDbEntity
  8
LAYER_1
 62
     7
100
AcDbVertex
100
AcDb2dVertex
 10
64.958309
 20
77.457804
 30
0.0
  0
VERTEX
  5
184
100
AcDbEntity
  8
LAYER_1
 62
     7
100
AcDbVertex
100
AcDb2dVertex
 10
66.90186
 20
77.978703
 30
0.0
  0
VERTEX
  5
185
100
AcDbEntity
  8
LAYER_1
 62
     7
100
AcDbVertex
100
AcDb2dVertex
 10
64.958309
 20
78.499601
 30
0.0
  0
SEQEND
  5
186
100
AcDbEntity
  8
LAYER_1
 62
     7
  0
POLYLINE
  5
17D
100
AcDbEntity
  8
LAYER_1
 62
     7
100
AcDb2dPolyline
 66
     1
 10
0.0
 20
0.0
 30
0.0
  0
VERTEX
  5
17E
100
AcDbEntity
  8
LAYER_1
 62
     7
100
AcDbVertex
100
AcDb2dVertex
 10
159.738398
 20
102.586331
 30
0.0
  0
VERTEX
  5
17F
100
AcDbEntity
  8
LAYER_1
 62
     7
100
AcDbVertex
100
AcDb2dVertex
 10
160.259296
 20
100.641574
 30
0.0
  0
VERTEX
  5
180
100
AcDbEntity
  8
LAYER_1
 62
     7
100
AcDbVertex
100
AcDb2dVertex
 10
160.780195
 20
102.586331
 30
0.0
  0
SEQEND
  5
181
100
AcDbEntity
  8
LAYER_1
 62
     7
  0
POLYLINE
  5
178
100
AcDbEntity
  8
LAYER_1
 62
     7
100
AcDb2dPolyline
 66
     1
 10
0.0
 20
0.0
 30
0.0
  0
VERTEX
  5
179
100
AcDbEntity
  8
LAYER_1
 62
     7
100
AcDbVertex
100
AcDb2dVertex
 10
159.679487
 20
199.993994
 30
0.0
  0
VERTEX
  5
17A
100
AcDbEntity
  8
LAYER_1
 62
     7
100
AcDbVertex
100
AcDb2dVertex
 10
160.200385
 20
198.049065
 30
0.0
  0
VERTEX
  5
17B
100
AcDbEntity
  8
LAYER_1
 62
     7
100
AcDbVertex
100
AcDb2dVertex
 10
160.720939
 20
199.993994
 30
0.0
  0
SEQEND
  5
17C
100
AcDbEntity
  8
LAYER_1
 62
     7
  0
POLYLINE
  5
173
100
AcDbEntity
  8
LAYER_1
 62
     7
100
AcDb2dPolyline
 66
     1
 10
0.0
 20
0.0
 30
0.0
  0
VERTEX
  5
174
100
AcDbEntity
  8
LAYER_1
 62
     7
100
AcDbVertex
100
AcDb2dVertex
 10
159.679487
 20
173.183744
 30
0.0
  0
VERTEX
  5
175
100
AcDbEntity
  8
LAYER_1
 62
     7
100
AcDbVertex
100
AcDb2dVertex
 10
160.200385
 20
171.238988
 30
0.0
  0
VERTEX
  5
176
100
AcDbEntity
  8
LAYER_1
 62
     7
100
AcDbVertex
100
AcDb2dVertex
 10
160.720939
 20
173.183744
 30
0.0
  0
SEQEND
  5
177
100
AcDbEntity
  8
LAYER_1
 62
     7
  0
POLYLINE
  5
16E
100
AcDbEntity
  8
LAYER_1
 62
     7
100
AcDb2dPolyline
 66
     1
 10
0.0
 20
0.0
 30
0.0
  0
VERTEX
  5
16F
100
AcDbEntity
  8
LAYER_1
 62
     7
100
AcDbVertex
100
AcDb2dVertex
 10
140.862031
 20
102.822664
 30
0.0
  0
VERTEX
  5
170
100
AcDbEntity
  8
LAYER_1
 62
     7
100
AcDbVertex
100
AcDb2dVertex
 10
142.806787
 20
103.343218
 30
0.0
  0
VERTEX
  5
171
100
AcDbEntity
  8
LAYER_1
 62
     7
100
AcDbVertex
100
AcDb2dVertex
 10
140.862031
 20
103.864117
 30
0.0
  0
SEQEND
  5
172
100
AcDbEntity
  8
LAYER_1
 62
     7
  0
MTEXT
  5
16D
100
AcDbEntity
  8
LAYER_1
 62
     7
100
AcDbMText
 10
156.8429
 20
123.308236
 30
0.0
 40
2.656753
 41
0.0
 71
     1
 72
     2
  1
\W0.50;\fMS Gothic|b0|i0|c128;乾式保護工法  600以下
  7
KANJISTD
210
0.0
220
0.0
230
1.0
 11
0.0
 21
1.0
 31
0.0
 73
     1
 44
1.0
  0
MTEXT
  5
16C
100
AcDbEntity
  8
LAYER_1
 62
     7
100
AcDbMText
 10
29.760285
 20
134.375155
 30
0.0
 40
2.656753
 41
0.0
 71
     1
 72
     2
  1
\W0.50;\fMS Gothic|b0|i0|c128;(20)
  7
STD
210
0.0
220
0.0
230
1.0
 11
1.000001
 21
0.0
 31
0.0
 73
     1
 44
1.0
  0
MTEXT
  5
16B
100
AcDbEntity
  8
LAYER_1
 62
     7
100
AcDbMText
 10
47.949356
 20
134.138822
 30
0.0
 40
2.656753
 41
0.0
 71
     1
 72
     2
  1
\W0.50;\fMS Gothic|b0|i0|c128;(180)
  7
STD
210
0.0
220
0.0
230
1.0
 11
1.000001
 21
0.0
 31
0.0
 73
     1
 44
1.0
  0
LINE
  5
16A
100
AcDbEntity
  8
LAYER_1
 62
     7
100
AcDbLine
 10
64.701305
 20
131.087606
 30
0.0
 11
28.883681
 21
131.087606
 31
0.0
  0
MTEXT
  5
169
100
AcDbEntity
  8
LAYER_1
 62
     7
100
AcDbMText
 10
156.956933
 20
193.923219
 30
0.0
 40
2.656753
 41
0.0
 71
     1
 72
     2
  1
\W0.50;\fMS Gothic|b0|i0|c128;(30)
  7
STD
210
0.0
220
0.0
230
1.0
 11
0.0
 21
1.0
 31
0.0
 73
     1
 44
1.0
  0
MTEXT
  5
168
100
AcDbEntity
  8
LAYER_1
 62
     7
100
AcDbMText
 10
156.961067
 20
178.47076
 30
0.0
 40
2.656753
 41
0.0
 71
     1
 72
     2
  1
\W0.50;\fMS Gothic|b0|i0|c128;(170)
  7
STD
210
0.0
220
0.0
230
1.0
 11
0.0
 21
1.0
 31
0.0
 73
     1
 44
1.0
  0
MTEXT
  5
167
100
AcDbEntity
  8
LAYER_1
 62
     7
100
AcDbMText
 10
127.95498
 20
112.06954
 30
0.0
 40
2.656753
 41
0.0
 71
     1
 72
     2
  1
\W0.50;\fMS Gothic|b0|i0|c128;伸縮目地
  7
KANJISTD
210
0.0
220
0.0
230
1.0
 11
1.000001
 21
0.0
 31
0.0
 73
     1
 44
1.0
  0
MTEXT
  5
166
100
AcDbEntity
  8
LAYER_1
 62
     7
100
AcDbMText
 10
175.340202
 20
125.012075
 30
0.0
 40
2.656753
 41
0.0
 71
     1
 72
     2
  1
\W0.50;\fMS Gothic|b0|i0|c128;フラットヤーンクロス(70g/㎡程度)
  7
KANJISTD
210
0.0
220
0.0
230
1.0
 11
1.000001
 21
0.0
 31
0.0
 73
     1
 44
1.0
  0
MTEXT
  5
165
100
AcDbEntity
  8
LAYER_1
 62
     7
100
AcDbMText
 10
175.260965
 20
114.042546
 30
0.0
 40
2.656753
 41
0.0
 71
     1
 72
     2
  1
\W0.50;\fMS Gothic|b0|i0|c128;防水層
  7
KANJISTD
210
0.0
220
0.0
230
1.0
 11
1.000001
 21
0.0
 31
0.0
 73
     1
 44
1.0
  0
MTEXT
  5
164
100
AcDbEntity
  8
LAYER_1
 62
     7
100
AcDbMText
 10
175.419095
 20
119.48752
 30
0.0
 40
2.656753
 41
0.0
 71
     1
 72
     2
  1
\W0.50;\fMS Gothic|b0|i0|c128;断熱材
  7
KANJISTD
210
0.0
220
0.0
230
1.0
 11
1.000001
 21
0.0
 31
0.0
 73
     1
 44
1.0
  0
MTEXT
  5
163
100
AcDbEntity
  8
LAYER_1
 62
     7
100
AcDbMText
 10
175.10249
 20
130.693382
 30
0.0
 40
2.656753
 41
0.0
 71
     1
 72
     2
  1
\W0.50;\fMS Gothic|b0|i0|c128;押さえコンクリート
  7
KANJISTD
210
0.0
220
0.0
230
1.0
 11
1.000001
 21
0.0
 31
0.0
 73
     1
 44
1.0
  0
MTEXT
  5
162
100
AcDbEntity
  8
LAYER_1
 62
     7
100
AcDbMText
 10
123.457408
 20
107.334256
 30
0.0
 40
2.656753
 41
0.0
 71
     1
 72
     2
  1
\W0.50;\fMS Gothic|b0|i0|c128;溶接金網
  7
KANJISTD
210
0.0
220
0.0
230
1.0
 11
1.000001
 21
0.0
 31
0.0
 73
     1
 44
1.0
  0
POLYLINE
  5
15D
100
AcDbEntity
  8
LAYER_1
 62
     7
100
AcDb2dPolyline
 66
     1
 10
0.0
 20
0.0
 30
0.0
  0
VERTEX
  5
15E
100
AcDbEntity
  8
LAYER_1
 62
     7
100
AcDbVertex
100
AcDb2dVertex
 10
78.600887
 20
95.326481
 30
0.0
  0
VERTEX
  5
15F
100
AcDbEntity
  8
LAYER_1
 62
     7
100
AcDbVertex
100
AcDb2dVertex
 10
85.387036
 20
95.326481
 30
0.0
  0
VERTEX
  5
160
100
AcDbEntity
  8
LAYER_1
 62
     7
100
AcDbVertex
100
AcDb2dVertex
 10
85.387036
 20
107.309557
 30
0.0
  0
SEQEND
  5
161
100
AcDbEntity
  8
LAYER_1
 62
     7
  0
MTEXT
  5
15C
100
AcDbEntity
  8
LAYER_1
 62
     7
100
AcDbMText
 10
89.647069
 20
133.41673
 30
0.0
 40
2.656753
 41
0.0
 71
     1
 72
     2
  1
\W0.50;\fMS Gothic|b0|i0|c128;成形緩衝材
  7
KANJISTD
210
0.0
220
0.0
230
1.0
 11
1.000001
 21
0.0
 31
0.0
 73
     1
 44
1.0
  0
MTEXT
  5
15B
100
AcDbEntity
  8
LAYER_1
 62
     7
100
AcDbMText
 10
89.615202
 20
118.81676
 30
0.0
 40
2.656753
 41
0.0
 71
     1
 72
     2
  1
\W0.50;\fMS Gothic|b0|i0|c128;アンカー
  7
KANJISTD
210
0.0
220
0.0
230
1.0
 11
1.000001
 21
0.0
 31
0.0
 73
     1
 44
1.0
  0
MTEXT
  5
15A
100
AcDbEntity
  8
LAYER_1
 62
     7
100
AcDbMText
 10
94.674257
 20
174.909909
 30
0.0
 40
2.656753
 41
0.0
 71
     1
 72
     2
  1
\W0.50;\fMS Gothic|b0|i0|c128;10程度
  7
KANJISTD
210
0.0
220
0.0
230
1.0
 11
0.0
 21
1.0
 31
0.0
 73
     1
 44
1.0
  0
MTEXT
  5
159
100
AcDbEntity
  8
LAYER_1
 62
     7
100
AcDbMText
 10
86.348667
 20
94.457973
 30
0.0
 40
2.656753
 41
0.0
 71
     1
 72
     2
  1
\W0.50;\fMS Gothic|b0|i0|c128;50以下
  7
KANJISTD
210
0.0
220
0.0
230
1.0
 11
0.0
 21
1.0
 31
0.0
 73
     1
 44
1.0
  0
MTEXT
  5
158
100
AcDbEntity
  8
LAYER_1
 62
     7
100
AcDbMText
 10
68.86832
 20
81.15911
 30
0.0
 40
2.656753
 41
0.0
 71
     1
 72
     2
  1
\W0.50;\fMS Gothic|b0|i0|c128;30以上
  7
KANJISTD
210
0.0
220
0.0
230
1.0
 11
1.000001
 21
0.0
 31
0.0
 73
     1
 44
1.0
  0
MTEXT
  5
157
100
AcDbEntity
  8
LAYER_1
 62
     7
100
AcDbMText
 10
101.721267
 20
72.729995
 30
0.0
 40
2.656753
 41
0.0
 71
     1
 72
     2
  1
\W0.50;\fMS Gothic|b0|i0|c128;600程度
  7
KANJISTD
210
0.0
220
0.0
230
1.0
 11
1.000001
 21
0.0
 31
0.0
 73
     1
 44
1.0
  0
MTEXT
  5
156
100
AcDbEntity
  8
LAYER_1
 62
     7
100
AcDbMText
 10
142.832281
 20
106.486074
 30
0.0
 40
2.656753
 41
0.0
 71
     1
 72
     2
  1
\W0.50;\fMS Gothic|b0|i0|c128;(25)
  7
STD
210
0.0
220
0.0
230
1.0
 11
1.000001
 21
0.0
 31
0.0
 73
     1
 44
1.0
  0
MTEXT
  5
155
100
AcDbEntity
  8
LAYER_1
 62
     7
100
AcDbMText
 10
116.366473
 20
91.933407
 30
0.0
 40
2.656753
 41
0.0
 71
     1
 72
     2
  1
\W0.50;\fMS Gothic|b0|i0|c128;(80)
  7
STD
210
0.0
220
0.0
230
1.0
 11
0.0
 21
1.0
 31
0.0
 73
     1
 44
1.0
  0
LINE
  5
154
100
AcDbEntity
  8
LAYER_1
 62
     7
100
AcDbLine
 10
119.680895
 20
89.44777
 30
0.0
 11
119.680895
 21
100.456228
 31
0.0
  0
POLYLINE
  5
14E
100
AcDbEntity
  8
LAYER_1
 62
     7
100
AcDb2dPolyline
 66
     1
 10
0.0
 20
0.0
 30
0.0
  0
VERTEX
  5
14F
100
AcDbEntity
  8
LAYER_1
 62
     7
100
AcDbVertex
100
AcDb2dVertex
 10
144.594792
 20
88.685371
 30
0.0
  0
VERTEX
  5
150
100
AcDbEntity
  8
LAYER_1
 62
     7
100
AcDbVertex
100
AcDb2dVertex
 10
144.594792
 20
69.719086
 30
0.0
  0
VERTEX
  5
151
100
AcDbEntity
  8
LAYER_1
 62
     7
100
AcDbVertex
100
AcDb2dVertex
 10
66.900309
 20
69.719086
 30
0.0
  0
VERTEX
  5
152
100
AcDbEntity
  8
LAYER_1
 62
     7
100
AcDbVertex
100
AcDb2dVertex
 10
66.900309
 20
77.978703
 30
0.0
  0
SEQEND
  5
153
100
AcDbEntity
  8
LAYER_1
 62
     7
  0
POLYLINE
  5
148
100
AcDbEntity
  8
LAYER_1
 62
     7
100
AcDb2dPolyline
 66
     1
 10
0.0
 20
0.0
 30
0.0
  0
VERTEX
  5
149
100
AcDbEntity
  8
LAYER_1
 62
     7
100
AcDbVertex
100
AcDb2dVertex
 10
146.409323
 20
100.989185
 30
0.0
  0
VERTEX
  5
14A
100
AcDbEntity
  8
LAYER_1
 62
     7
100
AcDbVertex
100
AcDb2dVertex
 10
146.409323
 20
103.287063
 30
0.0
  0
VERTEX
  5
14B
100
AcDbEntity
  8
LAYER_1
 62
     7
100
AcDbVertex
100
AcDb2dVertex
 10
142.91703
 20
103.287063
 30
0.0
  0
VERTEX
  5
14C
100
AcDbEntity
  8
LAYER_1
 62
     7
100
AcDbVertex
100
AcDb2dVertex
 10
142.91703
 20
100.989185
 30
0.0
  0
SEQEND
  5
14D
100
AcDbEntity
  8
LAYER_1
 62
     7
  0
POLYLINE
  5
142
100
AcDbEntity
  8
LAYER_1
 62
     7
100
AcDb2dPolyline
 66
     1
 10
0.0
 20
0.0
 30
0.0
 70
     1
  0
VERTEX
  5
143
100
AcDbEntity
  8
LAYER_1
 62
     7
100
AcDbVertex
100
AcDb2dVertex
 10
146.351446
 20
90.093381
 30
0.0
  0
VERTEX
  5
144
100
AcDbEntity
  8
LAYER_1
 62
     7
100
AcDbVertex
100
AcDb2dVertex
 10
146.351446
 20
100.218861
 30
0.0
  0
VERTEX
  5
145
100
AcDbEntity
  8
LAYER_1
 62
     7
100
AcDbVertex
100
AcDb2dVertex
 10
142.996267
 20
100.218861
 30
0.0
  0
VERTEX
  5
146
100
AcDbEntity
  8
LAYER_1
 62
     7
100
AcDbVertex
100
AcDb2dVertex
 10
142.996267
 20
90.093381
 30
0.0
  0
SEQEND
  5
147
100
AcDbEntity
  8
LAYER_1
 62
     7
  0
POLYLINE
  5
13C
100
AcDbEntity
  8
LAYER_1
 62
     7
100
AcDb2dPolyline
 66
     1
 10
0.0
 20
0.0
 30
0.0
  0
VERTEX
  5
13D
100
AcDbEntity
  8
LAYER_1
 62
     7
100
AcDbVertex
100
AcDb2dVertex
 10
185.599696
 20
89.457072
 30
0.0
  0
VERTEX
  5
13E
100
AcDbEntity
  8
LAYER_1
 62
     7
100
AcDbVertex
100
AcDb2dVertex
 10
75.64
 20
89.457072
 30
0.0
  0
VERTEX
  5
13F
100
AcDbEntity
  8
LAYER_1
 62
     7
100
AcDbVertex
100
AcDb2dVertex
 10
75.64
 20
86.101549
 30
0.0
  0
VERTEX
  5
140
100
AcDbEntity
  8
LAYER_1
 62
     7
100
AcDbVertex
100
AcDb2dVertex
 10
185.62519
 20
86.101549
 30
0.0
  0
SEQEND
  5
141
100
AcDbEntity
  8
LAYER_1
 62
     7
  0
MTEXT
  5
13B
100
AcDbEntity
  8
LAYER_1
 62
     7
100
AcDbMText
 10
89.060541
 20
208.722728
 30
0.0
 40
2.656753
 41
0.0
 71
     1
 72
     2
  1
\W0.50;\fMS Gothic|b0|i0|c128;コンクリートこて仕上げA種
  7
KANJISTD
210
0.0
220
0.0
230
1.0
 11
1.000001
 21
0.0
 31
0.0
 73
     1
 44
1.0
  0
MTEXT
  5
13A
100
AcDbEntity
  8
LAYER_1
 62
     7
100
AcDbMText
 10
42.232392
 20
209.56557
 30
0.0
 40
2.656753
 41
0.0
 71
     1
 72
     2
  1
\W0.50;\fMS Gothic|b0|i0|c128;上部ホルダー
  7
KANJISTD
210
0.0
220
0.0
230
1.0
 11
1.000001
 21
0.0
 31
0.0
 73
     1
 44
1.0
  0
SPLINE
  5
139
100
AcDbEntity
  8
LAYER_1
 62
     7
100
AcDbSpline
210
0.0
220
0.0
230
1.0
 70
     8
 71
     3
 72
    11
 73
     7
 74
     0
 42
0.00000001
 43
0.00000001
 40
0.0
 40
0.0
 40
0.0
 40
0.0
 40
1.0
 40
1.0
 40
1.0
 40
2.0
 40
2.0
 40
2.0
 40
2.0
 10
69.484819878472223
 20
165.87962510850693
 30
0.0
 10
69.254342990451377
 20
167.25662977430554
 30
0.0
 10
69.162186686197913
 20
168.65309922960068
 30
0.0
 10
69.209556749131934
 20
170.04853515624998
 30
0.0
 10
69.244007703993049
 20
170.46504720052081
 30
0.0
 10
69.336680772569437
 20
170.87484130859374
 30
0.0
 10
69.484819878472223
 20
171.26585964626736
 30
0.0
  0
LINE
  5
138
100
AcDbEntity
  8
LAYER_1
 62
     7
100
AcDbLine
 10
68.620445
 20
165.898401
 30
0.0
 11
69.443134
 21
166.719884
 31
0.0
  0
LINE
  5
137
100
AcDbEntity
  8
LAYER_1
 62
     7
100
AcDbLine
 10
67.279614
 20
165.898401
 30
0.0
 11
69.170627
 21
167.790964
 31
0.0
  0
LINE
  5
136
100
AcDbEntity
  8
LAYER_1
 62
     7
100
AcDbLine
 10
66.429881
 20
166.392255
 30
0.0
 11
69.150646
 21
169.113019
 31
0.0
  0
LINE
  5
135
100
AcDbEntity
  8
LAYER_1
 62
     7
100
AcDbLine
 10
65.542769
 20
166.845974
 30
0.0
 11
69.220409
 21
170.524992
 31
0.0
  0
LINE
  5
134
100
AcDbEntity
  8
LAYER_1
 62
     7
100
AcDbLine
 10
64.811376
 20
167.457996
 30
0.0
 11
68.429759
 21
171.076552
 31
0.0
  0
LINE
  5
133
100
AcDbEntity
  8
LAYER_1
 62
     7
100
AcDbLine
 10
64.811376
 20
168.800205
 30
0.0
 11
67.166787
 21
171.155789
 31
0.0
  0
LINE
  5
132
100
AcDbEntity
  8
LAYER_1
 62
     7
100
AcDbLine
 10
64.811376
 20
170.142414
 30
0.0
 11
65.815276
 21
171.146315
 31
0.0
  0
LINE
  5
131
100
AcDbEntity
  8
LAYER_1
 62
     7
100
AcDbLine
 10
59.437199
 20
161.086808
 30
0.0
 11
67.694231
 21
161.086808
 31
0.0
  0
POLYLINE
  5
12C
100
AcDbEntity
  8
LAYER_1
 62
     7
100
AcDb2dPolyline
 66
     1
 10
0.0
 20
0.0
 30
0.0
  0
VERTEX
  5
12D
100
AcDbEntity
  8
LAYER_1
 62
     7
100
AcDbVertex
100
AcDb2dVertex
 10
69.564057
 20
165.577662
 30
0.0
  0
VERTEX
  5
12E
100
AcDbEntity
  8
LAYER_1
 62
     7
100
AcDbVertex
100
AcDb2dVertex
 10
67.396403
 20
165.577662
 30
0.0
  0
VERTEX
  5
12F
100
AcDbEntity
  8
LAYER_1
 62
     7
100
AcDbVertex
100
AcDb2dVertex
 10
67.396403
 20
156.907218
 30
0.0
  0
SEQEND
  5
130
100
AcDbEntity
  8
LAYER_1
 62
     7
  0
LINE
  5
12B
100
AcDbEntity
  8
LAYER_1
 62
     7
100
AcDbLine
 10
70.605509
 20
77.978703
 30
0.0
 11
69.194915
 21
77.978703
 31
0.0
  0
LINE
  5
12A
100
AcDbEntity
  8
LAYER_1
 62
     7
100
AcDbLine
 10
82.101276
 20
171.166469
 30
0.0
 11
160.220367
 21
171.166469
 31
0.0
  0
LINE
  5
129
100
AcDbEntity
  8
LAYER_1
 62
     7
100
AcDbLine
 10
160.200385
 20
170.996109
 30
0.0
 11
160.200385
 21
100.054875
 31
0.0
  0
POLYLINE
  5
124
100
AcDbEntity
  8
LAYER_1
 62
     7
100
AcDb2dPolyline
 66
     1
 10
0.0
 20
0.0
 30
0.0
  0
VERTEX
  5
125
100
AcDbEntity
  8
LAYER_1
 62
     7
100
AcDbVertex
100
AcDb2dVertex
 10
81.312177
 20
172.739499
 30
0.0
  0
VERTEX
  5
126
100
AcDbEntity
  8
LAYER_1
 62
     7
100
AcDbVertex
100
AcDb2dVertex
 10
97.83296
 20
172.739499
 30
0.0
  0
VERTEX
  5
127
100
AcDbEntity
  8
LAYER_1
 62
     7
100
AcDbVertex
100
AcDb2dVertex
 10
97.83296
 20
164.954961
 30
0.0
  0
SEQEND
  5
128
100
AcDbEntity
  8
LAYER_1
 62
     7
  0
POLYLINE
  5
11F
100
AcDbEntity
  8
LAYER_1
 62
     7
100
AcDb2dPolyline
 66
     1
 10
0.0
 20
0.0
 30
0.0
  0
VERTEX
  5
120
100
AcDbEntity
  8
LAYER_1
 62
     7
100
AcDbVertex
100
AcDb2dVertex
 10
41.7754
 20
197.896103
 30
0.0
  0
VERTEX
  5
121
100
AcDbEntity
  8
LAYER_1
 62
     7
100
AcDbVertex
100
AcDb2dVertex
 10
160.220367
 20
197.896103
 30
0.0
  0
VERTEX
  5
122
100
AcDbEntity
  8
LAYER_1
 62
     7
100
AcDbVertex
100
AcDb2dVertex
 10
160.220367
 20
169.711605
 30
0.0
  0
SEQEND
  5
123
100
AcDbEntity
  8
LAYER_1
 62
     7
  0
LINE
  5
11E
100
AcDbEntity
  8
LAYER_1
 62
     7
100
AcDbLine
 10
82.495912
 20
193.976963
 30
0.0
 11
160.240348
 21
193.976963
 31
0.0
  0
MTEXT
  5
11D
100
AcDbEntity
  8
LAYER_1
 62
     7
100
AcDbMText
 10
91.648325
 20
124.088789
 30
0.0
 40
2.656753
 41
0.0
 71
     1
 72
     2
  1
\W0.50;\fMS Gothic|b0|i0|c128;下部ホルダー
  7
KANJISTD
210
0.0
220
0.0
230
1.0
 11
1.000001
 21
0.0
 31
0.0
 73
     1
 44
1.0
  0
MTEXT
  5
11C
100
AcDbEntity
  8
LAYER_1
 62
     7
100
AcDbMText
 10
89.938524
 20
153.631517
 30
0.0
 40
2.656753
 41
0.0
 71
     1
 72
     2
  1
\W0.50;\fMS Gothic|b0|i0|c128;ボード
  7
KANJISTD
210
0.0
220
0.0
230
1.0
 11
1.000001
 21
0.0
 31
0.0
 73
     1
 44
1.0
  0
SPLINE
  5
11B
100
AcDbEntity
  8
LAYER_1
 62
     7
100
AcDbSpline
210
0.0
220
0.0
230
1.0
 70
     8
 71
     3
 72
    17
 73
    13
 74
     0
 42
0.00000001
 43
0.00000001
 40
0.0
 40
0.0
 40
0.0
 40
0.0
 40
1.0
 40
1.0
 40
1.0
 40
2.0
 40
2.0
 40
2.0
 40
3.0
 40
3.0
 40
3.0
 40
4.0
 40
4.0
 40
4.0
 40
4.0
 10
180.5760579427083
 20
93.92260470920138
 30
0.0
 10
180.82203776041666
 20
94.08245713975694
 30
0.0
 10
180.96294216579861
 20
94.362543402777774
 30
0.0
 10
180.94502766927081
 20
94.655376519097217
 30
0.0
 10
180.86544596354165
 20
95.039160156249991
 30
0.0
 10
180.51783582899304
 20
95.307533094618051
 30
0.0
 10
180.12612847222221
 20
95.287551540798603
 30
0.0
 10
179.74234483506942
 20
95.207969835069434
 30
0.0
 10
179.47397189670139
 20
94.860359700520831
 30
0.0
 10
179.49395345052082
 20
94.468652343749994
 30
0.0
 10
179.67068684895833
 20
94.044905598958323
 30
0.0
 10
180.12991807725692
 20
93.812706163194434
 30
0.0
 10
180.5760579427083
 20
93.92260470920138
 30
0.0
  0
SPLINE
  5
11A
100
AcDbEntity
  8
LAYER_1
 62
     7
100
AcDbSpline
210
0.0
220
0.0
230
1.0
 70
     8
 71
     3
 72
    17
 73
    13
 74
     0
 42
0.00000001
 43
0.00000001
 40
0.0
 40
0.0
 40
0.0
 40
0.0
 40
1.0
 40
1.0
 40
1.0
 40
2.0
 40
2.0
 40
2.0
 40
3.0
 40
3.0
 40
3.0
 40
4.0
 40
4.0
 40
4.0
 40
4.0
 10
171.18059353298611
 20
93.92260470920138
 30
0.0
 10
171.42657335069444
 20
94.08245713975694
 30
0.0
 10
171.56747775607639
 20
94.362543402777774
 30
0.0
 10
171.54990776909722
 20
94.655376519097217
 30
0.0
 10
171.46998155381942
 20
95.039160156249991
 30
0.0
 10
171.12237141927082
 20
95.307533094618051
 30
0.0
 10
170.73100857204861
 20
95.287551540798603
 30
0.0
 10
170.34722493489582
 20
95.207969835069434
 30
0.0
 10
170.07885199652776
 20
94.860359700520831
 30
0.0
 10
170.09883355034719
 20
94.468652343749994
 30
0.0
 10
170.2752224392361
 20
94.044905598958323
 30
0.0
 10
170.73479817708332
 20
93.812706163194434
 30
0.0
 10
171.18059353298611
 20
93.92260470920138
 30
0.0
  0
SPLINE
  5
119
100
AcDbEntity
  8
LAYER_1
 62
     7
100
AcDbSpline
210
0.0
220
0.0
230
1.0
 70
     8
 71
     3
 72
    17
 73
    13
 74
     0
 42
0.00000001
 43
0.00000001
 40
0.0
 40
0.0
 40
0.0
 40
0.0
 40
1.0
 40
1.0
 40
1.0
 40
2.0
 40
2.0
 40
2.0
 40
3.0
 40
3.0
 40
3.0
 40
4.0
 40
4.0
 40
4.0
 40
4.0
 10
161.78547363281248
 20
93.92260470920138
 30
0.0
 10
162.03145345052081
 20
94.08245713975694
 30
0.0
 10
162.17235785590276
 20
94.362543402777774
 30
0.0
 10
162.15444335937499
 20
94.655376519097217
 30
0.0
 10
162.07486165364583
 20
95.039160156249991
 30
0.0
 10
161.72725151909719
 20
95.307533094618051
 30
0.0
 10
161.33554416232639
 20
95.287551540798603
 30
0.0
 10
160.9517605251736
 20
95.207969835069434
 30
0.0
 10
160.68338758680554
 20
94.860359700520831
 30
0.0
 10
160.7037136501736
 20
94.468652343749994
 30
0.0
 10
160.88010253906248
 20
94.044905598958323
 30
0.0
 10
161.3393337673611
 20
93.812706163194434
 30
0.0
 10
161.78547363281248
 20
93.92260470920138
 30
0.0
  0
SPLINE
  5
118
100
AcDbEntity
  8
LAYER_1
 62
     7
100
AcDbSpline
210
0.0
220
0.0
230
1.0
 70
     8
 71
     3
 72
    17
 73
    13
 74
     0
 42
0.00000001
 43
0.00000001
 40
0.0
 40
0.0
 40
0.0
 40
0.0
 40
1.0
 40
1.0
 40
1.0
 40
2.0
 40
2.0
 40
2.0
 40
3.0
 40
3.0
 40
3.0
 40
4.0
 40
4.0
 40
4.0
 40
4.0
 10
152.39000922309026
 20
93.92260470920138
 30
0.0
 10
152.63598904079859
 20
94.08245713975694
 30
0.0
 10
152.77689344618054
 20
94.362543402777774
 30
0.0
 10
152.75897894965277
 20
94.655376519097217
 30
0.0
 10
152.6793972439236
 20
95.039160156249991
 30
0.0
 10
152.331787109375
 20
95.307533094618051
 30
0.0
 10
151.94042426215276
 20
95.287551540798603
 30
0.0
 10
151.556640625
 20
95.207969835069434
 30
0.0
 10
151.28826768663194
 20
94.860359700520831
 30
0.0
 10
151.30824924045137
 20
94.468652343749994
 30
0.0
 10
151.48463812934025
 20
94.044905598958323
 30
0.0
 10
151.9442138671875
 20
93.812706163194434
 30
0.0
 10
152.39000922309026
 20
93.92260470920138
 30
0.0
  0
SPLINE
  5
117
100
AcDbEntity
  8
LAYER_1
 62
     7
100
AcDbSpline
210
0.0
220
0.0
230
1.0
 70
     8
 71
     3
 72
    17
 73
    13
 74
     0
 42
0.00000001
 43
0.00000001
 40
0.0
 40
0.0
 40
0.0
 40
0.0
 40
1.0
 40
1.0
 40
1.0
 40
2.0
 40
2.0
 40
2.0
 40
3.0
 40
3.0
 40
3.0
 40
4.0
 40
4.0
 40
4.0
 40
4.0
 10
137.38834092881945
 20
93.951888020833323
 30
0.0
 10
137.63432074652778
 20
94.112084960937494
 30
0.0
 10
137.77556966145832
 20
94.392171223958329
 30
0.0
 10
137.75765516493055
 20
94.685004340277771
 30
0.0
 10
137.67807345920139
 20
95.068787977430546
 30
0.0
 10
137.33046332465275
 20
95.337160915798606
 30
0.0
 10
136.93875596788195
 20
95.317179361979157
 30
0.0
 10
136.55497233072916
 20
95.237253146701377
 30
0.0
 10
136.2865993923611
 20
94.889643012152774
 30
0.0
 10
136.30658094618053
 20
94.498280164930549
 30
0.0
 10
136.48331434461804
 20
94.074188910590266
 30
0.0
 10
136.94254557291666
 20
93.842333984374989
 30
0.0
 10
137.38834092881945
 20
93.951888020833323
 30
0.0
  0
SPLINE
  5
116
100
AcDbEntity
  8
LAYER_1
 62
     7
100
AcDbSpline
210
0.0
220
0.0
230
1.0
 70
     8
 71
     3
 72
    17
 73
    13
 74
     0
 42
0.00000001
 43
0.00000001
 40
0.0
 40
0.0
 40
0.0
 40
0.0
 40
1.0
 40
1.0
 40
1.0
 40
2.0
 40
2.0
 40
2.0
 40
3.0
 40
3.0
 40
3.0
 40
4.0
 40
4.0
 40
4.0
 40
4.0
 10
127.99322102864582
 20
93.951888020833323
 30
0.0
 10
128.23920084635415
 20
94.112084960937494
 30
0.0
 10
128.3801052517361
 20
94.392171223958329
 30
0.0
 10
128.36219075520833
 20
94.685004340277771
 30
0.0
 10
128.28260904947916
 20
95.068787977430546
 30
0.0
 10
127.93499891493055
 20
95.337160915798606
 30
0.0
 10
127.54363606770832
 20
95.317179361979157
 30
0.0
 10
127.15985243055555
 20
95.237253146701377
 30
0.0
 10
126.89147949218749
 20
94.889643012152774
 30
0.0
 10
126.91146104600693
 20
94.498280164930549
 30
0.0
 10
127.08784993489583
 20
94.074188910590266
 30
0.0
 10
127.54708116319443
 20
93.842333984374989
 30
0.0
 10
127.99322102864582
 20
93.951888020833323
 30
0.0
  0
SPLINE
  5
115
100
AcDbEntity
  8
LAYER_1
 62
     7
100
AcDbSpline
210
0.0
220
0.0
230
1.0
 70
     8
 71
     3
 72
    17
 73
    13
 74
     0
 42
0.00000001
 43
0.00000001
 40
0.0
 40
0.0
 40
0.0
 40
0.0
 40
1.0
 40
1.0
 40
1.0
 40
2.0
 40
2.0
 40
2.0
 40
3.0
 40
3.0
 40
3.0
 40
4.0
 40
4.0
 40
4.0
 40
4.0
 10
109.20263671874999
 20
93.951888020833323
 30
0.0
 10
109.44861653645832
 20
94.112084960937494
 30
0.0
 10
109.58952094184026
 20
94.392171223958329
 30
0.0
 10
109.57195095486109
 20
94.685004340277771
 30
0.0
 10
109.49202473958333
 20
95.068787977430546
 30
0.0
 10
109.14441460503471
 20
95.337160915798606
 30
0.0
 10
108.75305175781249
 20
95.317179361979157
 30
0.0
 10
108.36926812065971
 20
95.237253146701377
 30
0.0
 10
108.10089518229165
 20
94.889643012152774
 30
0.0
 10
108.1208767361111
 20
94.498280164930549
 30
0.0
 10
108.29726562499999
 20
94.074188910590266
 30
0.0
 10
108.7564968532986
 20
93.842333984374989
 30
0.0
 10
109.20263671874999
 20
93.951888020833323
 30
0.0
  0
SPLINE
  5
114
100
AcDbEntity
  8
LAYER_1
 62
     7
100
AcDbSpline
210
0.0
220
0.0
230
1.0
 70
     8
 71
     3
 72
    17
 73
    13
 74
     0
 42
0.00000001
 43
0.00000001
 40
0.0
 40
0.0
 40
0.0
 40
0.0
 40
1.0
 40
1.0
 40
1.0
 40
2.0
 40
2.0
 40
2.0
 40
3.0
 40
3.0
 40
3.0
 40
4.0
 40
4.0
 40
4.0
 40
4.0
 10
99.807344563802076
 20
93.951888020833323
 30
0.0
 10
100.05332438151041
 20
94.112084960937494
 30
0.0
 10
100.19440104166665
 20
94.392171223958329
 30
0.0
 10
100.17648654513889
 20
94.685004340277771
 30
0.0
 10
100.09690483940972
 20
95.068787977430546
 30
0.0
 10
99.7492947048611
 20
95.337160915798606
 30
0.0
 10
99.357759602864576
 20
95.317179361979157
 30
0.0
 10
98.973975965711801
 20
95.237253146701377
 30
0.0
 10
98.705603027343741
 20
94.889643012152774
 30
0.0
 10
98.72558458116319
 20
94.498280164930549
 30
0.0
 10
98.902145724826383
 20
94.074188910590266
 30
0.0
 10
99.361376953124989
 20
93.842333984374989
 30
0.0
 10
99.807344563802076
 20
93.951888020833323
 30
0.0
  0
SPLINE
  5
113
100
AcDbEntity
  8
LAYER_1
 62
     7
100
AcDbSpline
210
0.0
220
0.0
230
1.0
 70
     8
 71
     3
 72
    17
 73
    13
 74
     0
 42
0.00000001
 43
0.00000001
 40
0.0
 40
0.0
 40
0.0
 40
0.0
 40
1.0
 40
1.0
 40
1.0
 40
2.0
 40
2.0
 40
2.0
 40
3.0
 40
3.0
 40
3.0
 40
4.0
 40
4.0
 40
4.0
 40
4.0
 10
90.412052408854152
 20
93.951888020833323
 30
0.0
 10
90.658032226562497
 20
94.112084960937494
 30
0.0
 10
90.799108886718741
 20
94.392171223958329
 30
0.0
 10
90.781194390190961
 20
94.685004340277771
 30
0.0
 10
90.701612684461793
 20
95.068787977430546
 30
0.0
 10
90.35400254991319
 20
95.337160915798606
 30
0.0
 10
89.962467447916652
 20
95.317179361979157
 30
0.0
 10
89.578683810763877
 20
95.237253146701377
 30
0.0
 10
89.310138617621519
 20
94.889643012152774
 30
0.0
 10
89.330292426215266
 20
94.498280164930549
 30
0.0
 10
89.506853569878459
 20
94.074188910590266
 30
0.0
 10
89.966084798177079
 20
93.842333984374989
 30
0.0
 10
90.412052408854152
 20
93.951888020833323
 30
0.0
  0
SPLINE
  5
112
100
AcDbEntity
  8
LAYER_1
 62
     7
100
AcDbSpline
210
0.0
220
0.0
230
1.0
 70
     8
 71
     3
 72
    17
 73
    13
 74
     0
 42
0.00000001
 43
0.00000001
 40
0.0
 40
0.0
 40
0.0
 40
0.0
 40
1.0
 40
1.0
 40
1.0
 40
2.0
 40
2.0
 40
2.0
 40
3.0
 40
3.0
 40
3.0
 40
4.0
 40
4.0
 40
4.0
 40
4.0
 10
81.016760253906241
 20
93.951888020833323
 30
0.0
 10
81.262740071614573
 20
94.112084960937494
 30
0.0
 10
81.403816731770831
 20
94.392171223958329
 30
0.0
 10
81.385902235243051
 20
94.685004340277771
 30
0.0
 10
81.306320529513883
 20
95.068787977430546
 30
0.0
 10
80.958710394965266
 20
95.337160915798606
 30
0.0
 10
80.567175292968741
 20
95.317179361979157
 30
0.0
 10
80.183391655815967
 20
95.237253146701377
 30
0.0
 10
79.914846462673609
 20
94.889643012152774
 30
0.0
 10
79.935000271267356
 20
94.498280164930549
 30
0.0
 10
80.111389160156236
 20
94.074188910590266
 30
0.0
 10
80.570792643229154
 20
93.842333984374989
 30
0.0
 10
81.016760253906241
 20
93.951888020833323
 30
0.0
  0
SPLINE
  5
111
100
AcDbEntity
  8
LAYER_1
 62
     7
100
AcDbSpline
210
0.0
220
0.0
230
1.0
 70
     8
 71
     3
 72
    17
 73
    13
 74
     0
 42
0.00000001
 43
0.00000001
 40
0.0
 40
0.0
 40
0.0
 40
0.0
 40
1.0
 40
1.0
 40
1.0
 40
2.0
 40
2.0
 40
2.0
 40
3.0
 40
3.0
 40
3.0
 40
4.0
 40
4.0
 40
4.0
 40
4.0
 10
76.249781629774304
 20
97.526174587673609
 30
0.0
 10
76.327124023437491
 20
97.596454535590269
 30
0.0
 10
76.371221245659711
 20
97.695673285590274
 30
0.0
 10
76.371910264756934
 20
97.800059678819437
 30
0.0
 10
76.3708767361111
 20
98.001597764756937
 30
0.0
 10
76.208268229166663
 20
98.164550781249986
 30
0.0
 10
76.006730143229163
 20
98.166617838541654
 30
0.0
 10
75.80501980251735
 20
98.165239800347209
 30
0.0
 10
75.641894531249989
 20
98.001942274305549
 30
0.0
 10
75.640516493055543
 20
97.800059678819437
 30
0.0
 10
75.734567599826377
 20
97.55752495659722
 30
0.0
 10
76.005868869357627
 20
97.435568576388874
 30
0.0
 10
76.249781629774304
 20
97.526174587673609
 30
0.0
  0
SPLINE
  5
110
100
AcDbEntity
  8
LAYER_1
 62
     7
100
AcDbSpline
210
0.0
220
0.0
230
1.0
 70
     8
 71
     3
 72
    17
 73
    13
 74
     0
 42
0.00000001
 43
0.00000001
 40
0.0
 40
0.0
 40
0.0
 40
0.0
 40
1.0
 40
1.0
 40
1.0
 40
2.0
 40
2.0
 40
2.0
 40
3.0
 40
3.0
 40
3.0
 40
4.0
 40
4.0
 40
4.0
 40
4.0
 10
68.04339192708332
 20
98.684760199652771
 30
0.0
 10
68.12090657552082
 20
98.75469563802082
 30
0.0
 10
68.165692816840277
 20
98.853914388020826
 30
0.0
 10
68.166726345486111
 20
98.958300781249989
 30
0.0
 10
68.165003797743054
 20
99.159838867187489
 30
0.0
 10
68.00170627170138
 20
99.32244737413194
 30
0.0
 10
67.800340440538193
 20
99.323480902777774
 30
0.0
 10
67.598974609374991
 20
99.32244737413194
 30
0.0
 10
67.435677083333331
 20
99.159838867187489
 30
0.0
 10
67.433954535590274
 20
98.958300781249989
 30
0.0
 10
67.528005642361109
 20
98.716110568576383
 30
0.0
 10
67.799479166666657
 20
98.59380967881944
 30
0.0
 10
68.04339192708332
 20
98.684760199652771
 30
0.0
  0
SPLINE
  5
10F
100
AcDbEntity
  8
LAYER_1
 62
     7
100
AcDbSpline
210
0.0
220
0.0
230
1.0
 70
     8
 71
     3
 72
    17
 73
    13
 74
     0
 42
0.00000001
 43
0.00000001
 40
0.0
 40
0.0
 40
0.0
 40
0.0
 40
1.0
 40
1.0
 40
1.0
 40
2.0
 40
2.0
 40
2.0
 40
3.0
 40
3.0
 40
3.0
 40
4.0
 40
4.0
 40
4.0
 40
4.0
 10
78.189025878906236
 20
102.92326117621526
 30
0.0
 10
78.266712782118049
 20
102.99319661458333
 30
0.0
 10
78.311499023437491
 20
103.09241536458332
 30
0.0
 10
78.312532552083326
 20
103.19714626736111
 30
0.0
 10
78.31115451388888
 20
103.39799533420138
 30
0.0
 10
78.14837375217013
 20
103.56060384114582
 30
0.0
 10
77.947524685329853
 20
103.56198187934027
 30
0.0
 10
77.745986599392353
 20
103.56094835069443
 30
0.0
 10
77.582861328124991
 20
103.39833984374999
 30
0.0
 10
77.580966525607636
 20
103.19714626736111
 30
0.0
 10
77.674845377604157
 20
102.95495605468749
 30
0.0
 10
77.945629882812497
 20
102.83299967447915
 30
0.0
 10
78.189025878906236
 20
102.92326117621526
 30
0.0
  0
POLYLINE
  5
10A
100
AcDbEntity
  8
LAYER_1
 62
     7
100
AcDb2dPolyline
 66
     1
 10
0.0
 20
0.0
 30
0.0
  0
VERTEX
  5
10B
100
AcDbEntity
  8
LAYER_1
 62
     7
100
AcDbVertex
100
AcDb2dVertex
 10
139.841938
 20
94.307766
 30
0.0
  0
VERTEX
  5
10C
100
AcDbEntity
  8
LAYER_1
 62
     7
100
AcDbVertex
100
AcDb2dVertex
 10
132.966216
 20
106.346997
 30
0.0
  0
VERTEX
  5
10D
100
AcDbEntity
  8
LAYER_1
 62
     7
100
AcDbVertex
100
AcDb2dVertex
 10
131.524444
 20
106.346997
 30
0.0
  0
SEQEND
  5
10E
100
AcDbEntity
  8
LAYER_1
 62
     7
  0
POLYLINE
  5
105
100
AcDbEntity
  8
LAYER_1
 62
     7
100
AcDb2dPolyline
 66
     1
 10
0.0
 20
0.0
 30
0.0
  0
VERTEX
  5
106
100
AcDbEntity
  8
LAYER_1
 62
     7
100
AcDbVertex
100
AcDb2dVertex
 10
144.369138
 20
98.56935
 30
0.0
  0
VERTEX
  5
107
100
AcDbEntity
  8
LAYER_1
 62
     7
100
AcDbVertex
100
AcDb2dVertex
 10
137.493072
 20
110.60858
 30
0.0
  0
VERTEX
  5
108
100
AcDbEntity
  8
LAYER_1
 62
     7
100
AcDbVertex
100
AcDb2dVertex
 10
136.051644
 20
110.60858
 30
0.0
  0
SEQEND
  5
109
100
AcDbEntity
  8
LAYER_1
 62
     7
  0
LINE
  5
104
100
AcDbEntity
  8
LAYER_1
 62
     7
100
AcDbLine
 10
66.919085
 20
92.021946
 30
0.0
 11
66.919085
 21
77.974913
 31
0.0
  0
POLYLINE
  5
FF
100
AcDbEntity
  8
LAYER_1
 62
     7
100
AcDb2dPolyline
 66
     1
 10
0.0
 20
0.0
 30
0.0
  0
VERTEX
  5
100
100
AcDbEntity
  8
LAYER_1
 62
     7
100
AcDbVertex
100
AcDb2dVertex
 10
75.998806
 20
94.899634
 30
0.0
  0
VERTEX
  5
101
100
AcDbEntity
  8
LAYER_1
 62
     7
100
AcDbVertex
100
AcDb2dVertex
 10
75.998806
 20
77.974913
 30
0.0
  0
VERTEX
  5
102
100
AcDbEntity
  8
LAYER_1
 62
     7
100
AcDbVertex
100
AcDb2dVertex
 10
66.990054
 20
77.974913
 30
0.0
  0
SEQEND
  5
103
100
AcDbEntity
  8
LAYER_1
 62
     7
  0
LINE
  5
FE
100
AcDbEntity
  8
LAYER_1
 62
     7
100
AcDbLine
 10
75.990366
 20
101.797059
 30
0.0
 11
75.990366
 21
95.181443
 31
0.0
  0
POLYLINE
  5
F8
100
AcDbEntity
  8
LAYER_1
 62
     7
100
AcDb2dPolyline
 66
     1
 10
0.0
 20
0.0
 30
0.0
 70
     1
  0
VERTEX
  5
F9
100
AcDbEntity
  8
LAYER_1
 62
     7
100
AcDbVertex
100
AcDb2dVertex
 10
77.055934
 20
102.167752
 30
0.0
  0
VERTEX
  5
FA
100
AcDbEntity
  8
LAYER_1
 62
     7
100
AcDbVertex
100
AcDb2dVertex
 10
77.055934
 20
172.642864
 30
0.0
  0
VERTEX
  5
FB
100
AcDbEntity
  8
LAYER_1
 62
     7
100
AcDbVertex
100
AcDb2dVertex
 10
75.045376
 20
172.642864
 30
0.0
  0
VERTEX
  5
FC
100
AcDbEntity
  8
LAYER_1
 62
     7
100
AcDbVertex
100
AcDb2dVertex
 10
75.045376
 20
102.167752
 30
0.0
  0
SEQEND
  5
FD
100
AcDbEntity
  8
LAYER_1
 62
     7
  0
POLYLINE
  5
EE
100
AcDbEntity
  8
LAYER_1
 62
     7
100
AcDb2dPolyline
 66
     1
 10
0.0
 20
0.0
 30
0.0
 70
     1
  0
VERTEX
  5
EF
100
AcDbEntity
  8
LAYER_1
 62
     7
100
AcDbVertex
100
AcDb2dVertex
 10
77.948558
 20
104.409131
 30
0.0
  0
VERTEX
  5
F0
100
AcDbEntity
  8
LAYER_1
 62
     7
100
AcDbVertex
100
AcDb2dVertex
 10
77.945802
 20
101.111141
 30
0.0
  0
VERTEX
  5
F1
100
AcDbEntity
  8
LAYER_1
 62
     7
100
AcDbVertex
100
AcDb2dVertex
 10
74.120713
 20
101.111141
 30
0.0
  0
VERTEX
  5
F2
100
AcDbEntity
  8
LAYER_1
 62
     7
100
AcDbVertex
100
AcDb2dVertex
 10
74.120713
 20
104.409131
 30
0.0
  0
VERTEX
  5
F3
100
AcDbEntity
  8
LAYER_1
 62
     7
100
AcDbVertex
100
AcDb2dVertex
 10
74.559618
 20
104.409131
 30
0.0
  0
VERTEX
  5
F4
100
AcDbEntity
  8
LAYER_1
 62
     7
100
AcDbVertex
100
AcDb2dVertex
 10
74.559618
 20
101.550046
 30
0.0
  0
VERTEX
  5
F5
100
AcDbEntity
  8
LAYER_1
 62
     7
100
AcDbVertex
100
AcDb2dVertex
 10
77.509653
 20
101.550046
 30
0.0
  0
VERTEX
  5
F6
100
AcDbEntity
  8
LAYER_1
 62
     7
100
AcDbVertex
100
AcDb2dVertex
 10
77.509653
 20
104.409131
 30
0.0
  0
SEQEND
  5
F7
100
AcDbEntity
  8
LAYER_1
 62
     7
  0
LINE
  5
ED
100
AcDbEntity
  8
LAYER_1
 62
     7
100
AcDbLine
 10
158.729329
 20
100.336683
 30
0.0
 11
169.164524
 21
89.900111
 31
0.0
  0
LINE
  5
EC
100
AcDbEntity
  8
LAYER_1
 62
     7
100
AcDbLine
 10
157.331999
 20
100.391805
 30
0.0
 11
167.819903
 21
89.903901
 31
0.0
  0
LINE
  5
EB
100
AcDbEntity
  8
LAYER_1
 62
     7
100
AcDbLine
 10
156.127938
 20
100.253657
 30
0.0
 11
166.461502
 21
89.920093
 31
0.0
  0
LINE
  5
EA
100
AcDbEntity
  8
LAYER_1
 62
     7
100
AcDbLine
 10
131.852072
 20
100.370445
 30
0.0
 11
142.366504
 21
89.854291
 31
0.0
  0
LINE
  5
E9
100
AcDbEntity
  8
LAYER_1
 62
     7
100
AcDbLine
 10
130.488159
 20
100.391805
 30
0.0
 11
141.021883
 21
89.858426
 31
0.0
  0
LINE
  5
E8
100
AcDbEntity
  8
LAYER_1
 62
     7
100
AcDbLine
 10
129.284443
 20
100.253657
 30
0.0
 11
139.663482
 21
89.874618
 31
0.0
  0
LINE
  5
E7
100
AcDbEntity
  8
LAYER_1
 62
     7
100
AcDbLine
 10
105.041995
 20
100.336683
 30
0.0
 11
115.489247
 21
89.888053
 31
0.0
  0
LINE
  5
E6
100
AcDbEntity
  8
LAYER_1
 62
     7
100
AcDbLine
 10
103.698408
 20
100.338062
 30
0.0
 11
114.19837
 21
89.838444
 31
0.0
  0
LINE
  5
E5
100
AcDbEntity
  8
LAYER_1
 62
     7
100
AcDbLine
 10
102.440776
 20
100.253657
 30
0.0
 11
112.786225
 21
89.906657
 31
0.0
  0
LINE
  5
E4
100
AcDbEntity
  8
LAYER_1
 62
     7
100
AcDbLine
 10
78.19695
 20
100.336683
 30
0.0
 11
88.653848
 21
89.881163
 31
0.0
  0
LINE
  5
E3
100
AcDbEntity
  8
LAYER_1
 62
     7
100
AcDbLine
 10
76.800997
 20
100.391805
 30
0.0
 11
87.307505
 21
89.883919
 31
0.0
  0
LINE
  5
E2
100
AcDbEntity
  8
LAYER_1
 62
     7
100
AcDbLine
 10
185.657574
 20
88.265069
 30
0.0
 11
183.574325
 21
86.182164
 31
0.0
  0
LINE
  5
E1
100
AcDbEntity
  8
LAYER_1
 62
     7
100
AcDbLine
 10
183.524715
 20
89.407463
 30
0.0
 11
185.60762
 21
87.322835
 31
0.0
  0
LINE
  5
E0
100
AcDbEntity
  8
LAYER_1
 62
     7
100
AcDbLine
 10
184.115205
 20
89.407463
 30
0.0
 11
180.889906
 21
86.182164
 31
0.0
  0
LINE
  5
DF
100
AcDbEntity
  8
LAYER_1
 62
     7
100
AcDbLine
 10
180.840297
 20
89.407463
 30
0.0
 11
184.065595
 21
86.182164
 31
0.0
  0
LINE
  5
DE
100
AcDbEntity
  8
LAYER_1
 62
     7
100
AcDbLine
 10
181.430786
 20
89.407463
 30
0.0
 11
178.205488
 21
86.182164
 31
0.0
  0
LINE
  5
DD
100
AcDbEntity
  8
LAYER_1
 62
     7
100
AcDbLine
 10
178.1545
 20
89.407463
 30
0.0
 11
181.381177
 21
86.182164
 31
0.0
  0
LINE
  5
DC
100
AcDbEntity
  8
LAYER_1
 62
     7
100
AcDbLine
 10
178.746712
 20
89.407463
 30
0.0
 11
175.521414
 21
86.182164
 31
0.0
  0
LINE
  5
DB
100
AcDbEntity
  8
LAYER_1
 62
     7
100
AcDbLine
 10
175.47146
 20
89.407463
 30
0.0
 11
178.696758
 21
86.182164
 31
0.0
  0
LINE
  5
DA
100
AcDbEntity
  8
LAYER_1
 62
     7
100
AcDbLine
 10
176.061949
 20
89.407463
 30
0.0
 11
172.836995
 21
86.182164
 31
0.0
  0
LINE
  5
D9
100
AcDbEntity
  8
LAYER_1
 62
     7
100
AcDbLine
 10
172.786008
 20
89.407463
 30
0.0
 11
176.01234
 21
86.182164
 31
0.0
  0
LINE
  5
D8
100
AcDbEntity
  8
LAYER_1
 62
     7
100
AcDbLine
 10
173.377875
 20
89.407463
 30
0.0
 11
170.152577
 21
86.182164
 31
0.0
  0
LINE
  5
D7
100
AcDbEntity
  8
LAYER_1
 62
     7
100
AcDbLine
 10
170.10159
 20
89.407463
 30
0.0
 11
173.328266
 21
86.182164
 31
0.0
  0
LINE
  5
D6
100
AcDbEntity
  8
LAYER_1
 62
     7
100
AcDbLine
 10
170.693457
 20
89.407463
 30
0.0
 11
167.468159
 21
86.182164
 31
0.0
  0
LINE
  5
D5
100
AcDbEntity
  8
LAYER_1
 62
     7
100
AcDbLine
 10
167.417171
 20
89.407463
 30
0.0
 11
170.643848
 21
86.182164
 31
0.0
  0
LINE
  5
D4
100
AcDbEntity
  8
LAYER_1
 62
     7
100
AcDbLine
 10
168.009039
 20
89.407463
 30
0.0
 11
164.78374
 21
86.182164
 31
0.0
  0
LINE
  5
D3
100
AcDbEntity
  8
LAYER_1
 62
     7
100
AcDbLine
 10
164.732753
 20
89.407463
 30
0.0
 11
167.959429
 21
86.182164
 31
0.0
  0
LINE
  5
D2
100
AcDbEntity
  8
LAYER_1
 62
     7
100
AcDbLine
 10
165.32462
 20
89.407463
 30
0.0
 11
162.099322
 21
86.182164
 31
0.0
  0
LINE
  5
D1
100
AcDbEntity
  8
LAYER_1
 62
     7
100
AcDbLine
 10
162.048334
 20
89.407463
 30
0.0
 11
165.275011
 21
86.182164
 31
0.0
  0
LINE
  5
D0
100
AcDbEntity
  8
LAYER_1
 62
     7
100
AcDbLine
 10
162.640202
 20
89.407463
 30
0.0
 11
159.415248
 21
86.182164
 31
0.0
  0
LINE
  5
CF
100
AcDbEntity
  8
LAYER_1
 62
     7
100
AcDbLine
 10
159.364261
 20
89.407463
 30
0.0
 11
162.590592
 21
86.182164
 31
0.0
  0
LINE
  5
CE
100
AcDbEntity
  8
LAYER_1
 62
     7
100
AcDbLine
 10
159.955783
 20
89.407463
 30
0.0
 11
156.730485
 21
86.182164
 31
0.0
  0
LINE
  5
CD
100
AcDbEntity
  8
LAYER_1
 62
     7
100
AcDbLine
 10
156.679498
 20
89.407463
 30
0.0
 11
159.906174
 21
86.182164
 31
0.0
  0
LINE
  5
CC
100
AcDbEntity
  8
LAYER_1
 62
     7
100
AcDbLine
 10
157.27171
 20
89.407463
 30
0.0
 11
154.046411
 21
86.182164
 31
0.0
  0
LINE
  5
CB
100
AcDbEntity
  8
LAYER_1
 62
     7
100
AcDbLine
 10
153.995424
 20
89.407463
 30
0.0
 11
157.221756
 21
86.182164
 31
0.0
  0
LINE
  5
CA
100
AcDbEntity
  8
LAYER_1
 62
     7
100
AcDbLine
 10
154.587291
 20
89.407463
 30
0.0
 11
151.361993
 21
86.182164
 31
0.0
  0
LINE
  5
C9
100
AcDbEntity
  8
LAYER_1
 62
     7
100
AcDbLine
 10
151.312383
 20
89.407463
 30
0.0
 11
154.537682
 21
86.182164
 31
0.0
  0
LINE
  5
C8
100
AcDbEntity
  8
LAYER_1
 62
     7
100
AcDbLine
 10
151.902873
 20
89.407463
 30
0.0
 11
148.677574
 21
86.182164
 31
0.0
  0
LINE
  5
C7
100
AcDbEntity
  8
LAYER_1
 62
     7
100
AcDbLine
 10
148.626587
 20
89.407463
 30
0.0
 11
151.853263
 21
86.182164
 31
0.0
  0
LINE
  5
C6
100
AcDbEntity
  8
LAYER_1
 62
     7
100
AcDbLine
 10
149.218454
 20
89.407463
 30
0.0
 11
145.993156
 21
86.182164
 31
0.0
  0
LINE
  5
C5
100
AcDbEntity
  8
LAYER_1
 62
     7
100
AcDbLine
 10
145.942169
 20
89.407463
 30
0.0
 11
149.168845
 21
86.182164
 31
0.0
  0
LINE
  5
C4
100
AcDbEntity
  8
LAYER_1
 62
     7
100
AcDbLine
 10
145.730295
 20
100.326004
 30
0.0
 11
143.07137
 21
97.667079
 31
0.0
  0
LINE
  5
C3
100
AcDbEntity
  8
LAYER_1
 62
     7
100
AcDbLine
 10
143.621552
 20
100.292586
 30
0.0
 11
146.246715
 21
97.667079
 31
0.0
  0
LINE
  5
C2
100
AcDbEntity
  8
LAYER_1
 62
     7
100
AcDbLine
 10
146.298047
 20
98.209337
 30
0.0
 11
143.07137
 21
94.982661
 31
0.0
  0
LINE
  5
C1
100
AcDbEntity
  8
LAYER_1
 62
     7
100
AcDbLine
 10
143.021761
 20
98.209337
 30
0.0
 11
146.246715
 21
94.982661
 31
0.0
  0
LINE
  5
C0
100
AcDbEntity
  8
LAYER_1
 62
     7
100
AcDbLine
 10
146.298047
 20
95.525263
 30
0.0
 11
143.07137
 21
92.298587
 31
0.0
  0
LINE
  5
BF
100
AcDbEntity
  8
LAYER_1
 62
     7
100
AcDbLine
 10
143.021761
 20
95.525263
 30
0.0
 11
146.246715
 21
92.298587
 31
0.0
  0
LINE
  5
BE
100
AcDbEntity
  8
LAYER_1
 62
     7
100
AcDbLine
 10
146.298047
 20
92.840845
 30
0.0
 11
143.483404
 21
90.026202
 31
0.0
  0
LINE
  5
BD
100
AcDbEntity
  8
LAYER_1
 62
     7
100
AcDbLine
 10
143.021761
 20
92.840845
 30
0.0
 11
145.948714
 21
89.913547
 31
0.0
  0
LINE
  5
BC
100
AcDbEntity
  8
LAYER_1
 62
     7
100
AcDbLine
 10
146.534036
 20
89.407463
 30
0.0
 11
143.308738
 21
86.182164
 31
0.0
  0
LINE
  5
BB
100
AcDbEntity
  8
LAYER_1
 62
     7
100
AcDbLine
 10
143.25775
 20
89.407463
 30
0.0
 11
146.484427
 21
86.182164
 31
0.0
  0
LINE
  5
BA
100
AcDbEntity
  8
LAYER_1
 62
     7
100
AcDbLine
 10
143.849618
 20
89.407463
 30
0.0
 11
140.624319
 21
86.182164
 31
0.0
  0
LINE
  5
B9
100
AcDbEntity
  8
LAYER_1
 62
     7
100
AcDbLine
 10
140.573332
 20
89.407463
 30
0.0
 11
143.800008
 21
86.182164
 31
0.0
  0
LINE
  5
B8
100
AcDbEntity
  8
LAYER_1
 62
     7
100
AcDbLine
 10
141.165544
 20
89.407463
 30
0.0
 11
137.940245
 21
86.182164
 31
0.0
  0
LINE
  5
B7
100
AcDbEntity
  8
LAYER_1
 62
     7
100
AcDbLine
 10
137.889258
 20
89.407463
 30
0.0
 11
141.11559
 21
86.182164
 31
0.0
  0
LINE
  5
B6
100
AcDbEntity
  8
LAYER_1
 62
     7
100
AcDbLine
 10
138.481125
 20
89.407463
 30
0.0
 11
135.255827
 21
86.182164
 31
0.0
  0
LINE
  5
B5
100
AcDbEntity
  8
LAYER_1
 62
     7
100
AcDbLine
 10
135.204839
 20
89.407463
 30
0.0
 11
138.431516
 21
86.182164
 31
0.0
  0
LINE
  5
B4
100
AcDbEntity
  8
LAYER_1
 62
     7
100
AcDbLine
 10
135.796707
 20
89.407463
 30
0.0
 11
132.571408
 21
86.182164
 31
0.0
  0
LINE
  5
B3
100
AcDbEntity
  8
LAYER_1
 62
     7
100
AcDbLine
 10
132.520421
 20
89.407463
 30
0.0
 11
135.747097
 21
86.182164
 31
0.0
  0
LINE
  5
B2
100
AcDbEntity
  8
LAYER_1
 62
     7
100
AcDbLine
 10
133.112288
 20
89.407463
 30
0.0
 11
129.88699
 21
86.182164
 31
0.0
  0
LINE
  5
B1
100
AcDbEntity
  8
LAYER_1
 62
     7
100
AcDbLine
 10
129.836003
 20
89.407463
 30
0.0
 11
133.062679
 21
86.182164
 31
0.0
  0
LINE
  5
B0
100
AcDbEntity
  8
LAYER_1
 62
     7
100
AcDbLine
 10
130.42787
 20
89.407463
 30
0.0
 11
127.202572
 21
86.182164
 31
0.0
  0
LINE
  5
AF
100
AcDbEntity
  8
LAYER_1
 62
     7
100
AcDbLine
 10
127.151584
 20
89.407463
 30
0.0
 11
130.378261
 21
86.182164
 31
0.0
  0
LINE
  5
AE
100
AcDbEntity
  8
LAYER_1
 62
     7
100
AcDbLine
 10
127.743452
 20
89.407463
 30
0.0
 11
124.518153
 21
86.182164
 31
0.0
  0
LINE
  5
AD
100
AcDbEntity
  8
LAYER_1
 62
     7
100
AcDbLine
 10
124.467166
 20
89.407463
 30
0.0
 11
127.693842
 21
86.182164
 31
0.0
  0
LINE
  5
AC
100
AcDbEntity
  8
LAYER_1
 62
     7
100
AcDbLine
 10
125.059378
 20
89.407463
 30
0.0
 11
121.834079
 21
86.182164
 31
0.0
  0
LINE
  5
AB
100
AcDbEntity
  8
LAYER_1
 62
     7
100
AcDbLine
 10
121.783092
 20
89.407463
 30
0.0
 11
125.009424
 21
86.182164
 31
0.0
  0
LINE
  5
AA
100
AcDbEntity
  8
LAYER_1
 62
     7
100
AcDbLine
 10
122.374615
 20
89.407463
 30
0.0
 11
119.149661
 21
86.182164
 31
0.0
  0
LINE
  5
A9
100
AcDbEntity
  8
LAYER_1
 62
     7
100
AcDbLine
 10
119.098674
 20
89.407463
 30
0.0
 11
122.325005
 21
86.182164
 31
0.0
  0
LINE
  5
A8
100
AcDbEntity
  8
LAYER_1
 62
     7
100
AcDbLine
 10
119.690541
 20
89.407463
 30
0.0
 11
116.465243
 21
86.182164
 31
0.0
  0
LINE
  5
A7
100
AcDbEntity
  8
LAYER_1
 62
     7
100
AcDbLine
 10
116.414255
 20
89.407463
 30
0.0
 11
119.640932
 21
86.182164
 31
0.0
  0
LINE
  5
A6
100
AcDbEntity
  8
LAYER_1
 62
     7
100
AcDbLine
 10
117.006123
 20
89.407463
 30
0.0
 11
113.780824
 21
86.182164
 31
0.0
  0
LINE
  5
A5
100
AcDbEntity
  8
LAYER_1
 62
     7
100
AcDbLine
 10
113.729837
 20
89.407463
 30
0.0
 11
116.956513
 21
86.182164
 31
0.0
  0
LINE
  5
A4
100
AcDbEntity
  8
LAYER_1
 62
     7
100
AcDbLine
 10
114.321704
 20
89.407463
 30
0.0
 11
111.096406
 21
86.182164
 31
0.0
  0
LINE
  5
A3
100
AcDbEntity
  8
LAYER_1
 62
     7
100
AcDbLine
 10
111.045418
 20
89.407463
 30
0.0
 11
114.272095
 21
86.182164
 31
0.0
  0
LINE
  5
A2
100
AcDbEntity
  8
LAYER_1
 62
     7
100
AcDbLine
 10
111.637286
 20
89.407463
 30
0.0
 11
108.411987
 21
86.182164
 31
0.0
  0
LINE
  5
A1
100
AcDbEntity
  8
LAYER_1
 62
     7
100
AcDbLine
 10
108.361
 20
89.407463
 30
0.0
 11
111.586298
 21
86.182164
 31
0.0
  0
LINE
  5
A0
100
AcDbEntity
  8
LAYER_1
 62
     7
100
AcDbLine
 10
108.953212
 20
89.407463
 30
0.0
 11
105.727913
 21
86.182164
 31
0.0
  0
LINE
  5
9F
100
AcDbEntity
  8
LAYER_1
 62
     7
100
AcDbLine
 10
105.676926
 20
89.407463
 30
0.0
 11
108.903258
 21
86.182164
 31
0.0
  0
LINE
  5
9E
100
AcDbEntity
  8
LAYER_1
 62
     7
100
AcDbLine
 10
106.268449
 20
89.407463
 30
0.0
 11
103.043495
 21
86.182164
 31
0.0
  0
LINE
  5
9D
100
AcDbEntity
  8
LAYER_1
 62
     7
100
AcDbLine
 10
102.992335
 20
89.407463
 30
0.0
 11
106.21884
 21
86.182164
 31
0.0
  0
LINE
  5
9C
100
AcDbEntity
  8
LAYER_1
 62
     7
100
AcDbLine
 10
103.584203
 20
89.407463
 30
0.0
 11
100.358904
 21
86.182164
 31
0.0
  0
LINE
  5
9B
100
AcDbEntity
  8
LAYER_1
 62
     7
100
AcDbLine
 10
100.307917
 20
89.407463
 30
0.0
 11
103.533215
 21
86.182164
 31
0.0
  0
LINE
  5
9A
100
AcDbEntity
  8
LAYER_1
 62
     7
100
AcDbLine
 10
100.899957
 20
89.407463
 30
0.0
 11
97.674658
 21
86.182164
 31
0.0
  0
LINE
  5
99
100
AcDbEntity
  8
LAYER_1
 62
     7
100
AcDbLine
 10
97.623671
 20
89.407463
 30
0.0
 11
100.848969
 21
86.182164
 31
0.0
  0
LINE
  5
98
100
AcDbEntity
  8
LAYER_1
 62
     7
100
AcDbLine
 10
98.215538
 20
89.407463
 30
0.0
 11
94.99024
 21
86.182164
 31
0.0
  0
LINE
  5
97
100
AcDbEntity
  8
LAYER_1
 62
     7
100
AcDbLine
 10
94.939252
 20
89.407463
 30
0.0
 11
98.165929
 21
86.182164
 31
0.0
  0
LINE
  5
96
100
AcDbEntity
  8
LAYER_1
 62
     7
100
AcDbLine
 10
95.531292
 20
89.407463
 30
0.0
 11
92.305994
 21
86.182164
 31
0.0
  0
LINE
  5
95
100
AcDbEntity
  8
LAYER_1
 62
     7
100
AcDbLine
 10
92.255006
 20
89.407463
 30
0.0
 11
95.480132
 21
86.182164
 31
0.0
  0
LINE
  5
94
100
AcDbEntity
  8
LAYER_1
 62
     7
100
AcDbLine
 10
92.846701
 20
89.407463
 30
0.0
 11
89.621575
 21
86.182164
 31
0.0
  0
LINE
  5
93
100
AcDbEntity
  8
LAYER_1
 62
     7
100
AcDbLine
 10
89.570416
 20
89.407463
 30
0.0
 11
92.795714
 21
86.182164
 31
0.0
  0
LINE
  5
92
100
AcDbEntity
  8
LAYER_1
 62
     7
100
AcDbLine
 10
75.391781
 20
87.545733
 30
0.0
 11
74.100559
 21
86.254511
 31
0.0
  0
LINE
  5
91
100
AcDbEntity
  8
LAYER_1
 62
     7
100
AcDbLine
 10
74.266957
 20
88.340516
 30
0.0
 11
72.153046
 21
86.226261
 31
0.0
  0
LINE
  5
90
100
AcDbEntity
  8
LAYER_1
 62
     7
100
AcDbLine
 10
72.284477
 20
88.343617
 30
0.0
 11
70.745036
 21
86.804004
 31
0.0
  0
LINE
  5
8F
100
AcDbEntity
  8
LAYER_1
 62
     7
100
AcDbLine
 10
71.335697
 20
89.292396
 30
0.0
 11
69.796257
 21
87.753128
 31
0.0
  0
LINE
  5
8E
100
AcDbEntity
  8
LAYER_1
 62
     7
100
AcDbLine
 10
70.386746
 20
90.24152
 30
0.0
 11
68.847305
 21
88.701907
 31
0.0
  0
LINE
  5
8D
100
AcDbEntity
  8
LAYER_1
 62
     7
100
AcDbLine
 10
69.437794
 20
91.190299
 30
0.0
 11
67.898353
 21
89.650686
 31
0.0
  0
LINE
  5
8C
100
AcDbEntity
  8
LAYER_1
 62
     7
100
AcDbLine
 10
69.134454
 20
92.718544
 30
0.0
 11
67.093924
 21
90.685937
 31
0.0
  0
LINE
  5
8B
100
AcDbEntity
  8
LAYER_1
 62
     7
100
AcDbLine
 10
66.9668
 20
92.673069
 30
0.0
 11
73.45357
 21
86.186298
 31
0.0
  0
LINE
  5
8A
100
AcDbEntity
  8
LAYER_1
 62
     7
100
AcDbLine
 10
69.134454
 20
94.638151
 30
0.0
 11
66.984197
 21
92.487722
 31
0.0
  0
LINE
  5
89
100
AcDbEntity
  8
LAYER_1
 62
     7
100
AcDbLine
 10
73.185197
 20
88.373934
 30
0.0
 11
75.346133
 21
86.21317
 31
0.0
  0
LINE
  5
88
100
AcDbEntity
  8
LAYER_1
 62
     7
100
AcDbLine
 10
66.9668
 20
94.592331
 30
0.0
 11
69.161325
 21
92.397805
 31
0.0
  0
LINE
  5
87
100
AcDbEntity
  8
LAYER_1
 62
     7
100
AcDbLine
 10
69.134454
 20
96.557069
 30
0.0
 11
66.984197
 21
94.406985
 31
0.0
  0
LINE
  5
86
100
AcDbEntity
  8
LAYER_1
 62
     7
100
AcDbLine
 10
75.07776
 20
88.400806
 30
0.0
 11
75.343377
 21
88.135189
 31
0.0
  0
LINE
  5
85
100
AcDbEntity
  8
LAYER_1
 62
     7
100
AcDbLine
 10
66.9668
 20
96.511594
 30
0.0
 11
69.143928
 21
94.334638
 31
0.0
  0
LINE
  5
84
100
AcDbEntity
  8
LAYER_1
 62
     7
100
AcDbLine
 10
69.134454
 20
98.476676
 30
0.0
 11
66.984197
 21
96.326248
 31
0.0
  0
LINE
  5
83
100
AcDbEntity
  8
LAYER_1
 62
     7
100
AcDbLine
 10
66.9668
 20
98.430857
 30
0.0
 11
69.14255
 21
96.255279
 31
0.0
  0
LINE
  5
82
100
AcDbEntity
  8
LAYER_1
 62
     7
100
AcDbLine
 10
69.134454
 20
100.395939
 30
0.0
 11
66.984197
 21
98.245855
 31
0.0
  0
LINE
  5
81
100
AcDbEntity
  8
LAYER_1
 62
     7
100
AcDbLine
 10
66.9668
 20
100.350464
 30
0.0
 11
69.233845
 21
98.083247
 31
0.0
  0
LINE
  5
80
100
AcDbEntity
  8
LAYER_1
 62
     7
100
AcDbLine
 10
76.740535
 20
89.407463
 30
0.0
 11
75.638794
 21
88.305377
 31
0.0
  0
LINE
  5
7F
100
AcDbEntity
  8
LAYER_1
 62
     7
100
AcDbLine
 10
75.690987
 20
87.180897
 30
0.0
 11
76.689548
 21
86.182164
 31
0.0
  0
LINE
  5
7E
100
AcDbEntity
  8
LAYER_1
 62
     7
100
AcDbLine
 10
79.424954
 20
89.407463
 30
0.0
 11
76.199828
 21
86.182164
 31
0.0
  0
LINE
  5
7D
100
AcDbEntity
  8
LAYER_1
 62
     7
100
AcDbLine
 10
76.148668
 20
89.407463
 30
0.0
 11
79.373966
 21
86.182164
 31
0.0
  0
LINE
  5
7C
100
AcDbEntity
  8
LAYER_1
 62
     7
100
AcDbLine
 10
82.109372
 20
89.407463
 30
0.0
 11
78.884074
 21
86.182164
 31
0.0
  0
LINE
  5
7B
100
AcDbEntity
  8
LAYER_1
 62
     7
100
AcDbLine
 10
78.833086
 20
89.407463
 30
0.0
 11
82.058385
 21
86.182164
 31
0.0
  0
LINE
  5
7A
100
AcDbEntity
  8
LAYER_1
 62
     7
100
AcDbLine
 10
84.793791
 20
89.407463
 30
0.0
 11
81.568492
 21
86.182164
 31
0.0
  0
LINE
  5
79
100
AcDbEntity
  8
LAYER_1
 62
     7
100
AcDbLine
 10
81.517505
 20
89.407463
 30
0.0
 11
84.742803
 21
86.182164
 31
0.0
  0
LINE
  5
78
100
AcDbEntity
  8
LAYER_1
 62
     7
100
AcDbLine
 10
87.478037
 20
89.407463
 30
0.0
 11
84.252738
 21
86.182164
 31
0.0
  0
LINE
  5
77
100
AcDbEntity
  8
LAYER_1
 62
     7
100
AcDbLine
 10
84.201751
 20
89.407463
 30
0.0
 11
87.427049
 21
86.182164
 31
0.0
  0
LINE
  5
76
100
AcDbEntity
  8
LAYER_1
 62
     7
100
AcDbLine
 10
90.162455
 20
89.407463
 30
0.0
 11
86.937329
 21
86.182164
 31
0.0
  0
LINE
  5
75
100
AcDbEntity
  8
LAYER_1
 62
     7
100
AcDbLine
 10
86.886169
 20
89.407463
 30
0.0
 11
90.112846
 21
86.182164
 31
0.0
  0
LINE
  5
74
100
AcDbEntity
  8
LAYER_1
 62
     7
100
AcDbLine
 10
75.597108
 20
100.253657
 30
0.0
 11
85.968051
 21
89.881163
 31
0.0
  0
LINE
  5
73
100
AcDbEntity
  8
LAYER_1
 62
     7
100
AcDbLine
 10
83.510493
 20
187.686046
 30
0.0
 11
76.685586
 21
194.511125
 31
0.0
  0
LINE
  5
72
100
AcDbEntity
  8
LAYER_1
 62
     7
100
AcDbLine
 10
83.58973
 20
188.949018
 30
0.0
 11
78.17404
 21
194.36488
 31
0.0
  0
LINE
  5
71
100
AcDbEntity
  8
LAYER_1
 62
     7
100
AcDbLine
 10
83.5508
 20
190.222842
 30
0.0
 11
79.526929
 21
194.250675
 31
0.0
  0
LINE
  5
70
100
AcDbEntity
  8
LAYER_1
 62
     7
100
AcDbLine
 10
73.06703
 20
171.284635
 30
0.0
 11
47.065
 21
197.288044
 31
0.0
  0
LINE
  5
6F
100
AcDbEntity
  8
LAYER_1
 62
     7
100
AcDbLine
 10
73.926065
 20
171.769188
 30
0.0
 11
48.445966
 21
197.249114
 31
0.0
  0
LINE
  5
6E
100
AcDbEntity
  8
LAYER_1
 62
     7
100
AcDbLine
 10
73.975674
 20
173.061616
 30
0.0
 11
49.827105
 21
197.208979
 31
0.0
  0
LINE
  5
6D
100
AcDbEntity
  8
LAYER_1
 62
     7
100
AcDbLine
 10
64.854267
 20
152.655109
 30
0.0
 11
37.912587
 21
179.595412
 31
0.0
  0
LINE
  5
6C
100
AcDbEntity
  8
LAYER_1
 62
     7
100
AcDbLine
 10
64.854267
 20
153.99594
 30
0.0
 11
38.032132
 21
180.819454
 31
0.0
  0
LINE
  5
6B
100
AcDbEntity
  8
LAYER_1
 62
     7
100
AcDbLine
 10
64.894575
 20
155.29922
 30
0.0
 11
38.071061
 21
182.121356
 31
0.0
  0
LINE
  5
6A
100
AcDbEntity
  8
LAYER_1
 62
     7
100
AcDbLine
 10
64.823261
 20
99.245622
 30
0.0
 11
38.037472
 21
126.031584
 31
0.0
  0
LINE
  5
69
100
AcDbEntity
  8
LAYER_1
 62
     7
100
AcDbLine
 10
64.784504
 20
100.626761
 30
0.0
 11
38.037472
 21
127.373793
 31
0.0
  0
LINE
  5
68
100
AcDbEntity
  8
LAYER_1
 62
     7
100
AcDbLine
 10
64.773652
 20
101.978271
 30
0.0
 11
38.037472
 21
128.714624
 31
0.0
  0
LINE
  5
67
100
AcDbEntity
  8
LAYER_1
 62
     7
100
AcDbLine
 10
51.029788
 20
59.350727
 30
0.0
 11
38.037472
 21
72.342871
 31
0.0
  0
LINE
  5
66
100
AcDbEntity
  8
LAYER_1
 62
     7
100
AcDbLine
 10
52.410927
 20
59.311797
 30
0.0
 11
38.037472
 21
73.68508
 31
0.0
  0
LINE
  5
65
100
AcDbEntity
  8
LAYER_1
 62
     7
100
AcDbLine
 10
53.732982
 20
59.331779
 30
0.0
 11
38.037472
 21
75.027289
 31
0.0
  0
LINE
  5
64
100
AcDbEntity
  8
LAYER_1
 62
     7
100
AcDbLine
 10
185.633114
 20
59.171927
 30
0.0
 11
160.829804
 21
83.975581
 31
0.0
  0
LINE
  5
63
100
AcDbEntity
  8
LAYER_1
 62
     7
100
AcDbLine
 10
185.64276
 20
60.504834
 30
0.0
 11
162.181315
 21
83.966279
 31
0.0
  0
LINE
  5
62
100
AcDbEntity
  8
LAYER_1
 62
     7
100
AcDbLine
 10
185.683067
 20
61.808114
 30
0.0
 11
163.504576
 21
83.98626
 31
0.0
  0
LINE
  5
61
100
AcDbEntity
  8
LAYER_1
 62
     7
100
AcDbLine
 10
158.584291
 20
59.171927
 30
0.0
 11
133.780637
 21
83.975581
 31
0.0
  0
LINE
  5
60
100
AcDbEntity
  8
LAYER_1
 62
     7
100
AcDbLine
 10
159.886192
 20
59.212234
 30
0.0
 11
135.132148
 21
83.966279
 31
0.0
  0
LINE
  5
5F
100
AcDbEntity
  8
LAYER_1
 62
     7
100
AcDbLine
 10
161.425461
 20
59.015175
 30
0.0
 11
136.454376
 21
83.98626
 31
0.0
  0
LINE
  5
5E
100
AcDbEntity
  8
LAYER_1
 62
     7
100
AcDbLine
 10
108.903258
 20
82.009465
 30
0.0
 11
106.937142
 21
83.975581
 31
0.0
  0
LINE
  5
5D
100
AcDbEntity
  8
LAYER_1
 62
     7
100
AcDbLine
 10
131.850694
 20
59.062028
 30
0.0
 11
108.903258
 21
82.009465
 31
0.0
  0
LINE
  5
5C
100
AcDbEntity
  8
LAYER_1
 62
     7
100
AcDbLine
 10
110.285775
 20
81.969157
 30
0.0
 11
108.288653
 21
83.966279
 31
0.0
  0
LINE
  5
5B
100
AcDbEntity
  8
LAYER_1
 62
     7
100
AcDbLine
 10
133.058545
 20
59.196387
 30
0.0
 11
110.285775
 21
81.969157
 31
0.0
  0
LINE
  5
5A
100
AcDbEntity
  8
LAYER_1
 62
     7
100
AcDbLine
 10
111.666914
 20
81.930227
 30
0.0
 11
109.610536
 21
83.98626
 31
0.0
  0
LINE
  5
59
100
AcDbEntity
  8
LAYER_1
 62
     7
100
AcDbLine
 10
134.376638
 20
59.220502
 30
0.0
 11
111.666914
 21
81.930227
 31
0.0
  0
LINE
  5
58
100
AcDbEntity
  8
LAYER_1
 62
     7
100
AcDbLine
 10
85.103677
 20
78.964
 30
0.0
 11
80.093302
 21
83.975581
 31
0.0
  0
LINE
  5
57
100
AcDbEntity
  8
LAYER_1
 62
     7
100
AcDbLine
 10
105.006855
 20
59.062028
 30
0.0
 11
85.103677
 21
78.964
 31
0.0
  0
LINE
  5
56
100
AcDbEntity
  8
LAYER_1
 62
     7
100
AcDbLine
 10
86.486194
 20
78.925071
 30
0.0
 11
81.444986
 21
83.966279
 31
0.0
  0
LINE
  5
55
100
AcDbEntity
  8
LAYER_1
 62
     7
100
AcDbLine
 10
106.21505
 20
59.196387
 30
0.0
 11
86.486194
 21
78.925071
 31
0.0
  0
LINE
  5
54
100
AcDbEntity
  8
LAYER_1
 62
     7
100
AcDbLine
 10
87.827025
 20
78.926449
 30
0.0
 11
82.767041
 21
83.98626
 31
0.0
  0
LINE
  5
53
100
AcDbEntity
  8
LAYER_1
 62
     7
100
AcDbLine
 10
107.532799
 20
59.220502
 30
0.0
 11
87.827025
 21
78.926449
 31
0.0
  0
LINE
  5
52
100
AcDbEntity
  8
LAYER_1
 62
     7
100
AcDbLine
 10
77.945802
 20
59.278035
 30
0.0
 11
38.037472
 21
99.186711
 31
0.0
  0
LINE
  5
51
100
AcDbEntity
  8
LAYER_1
 62
     7
100
AcDbLine
 10
79.328319
 20
59.239106
 30
0.0
 11
38.037472
 21
100.528575
 31
0.0
  0
LINE
  5
50
100
AcDbEntity
  8
LAYER_1
 62
     7
100
AcDbLine
 10
80.689304
 20
59.220502
 30
0.0
 11
38.037472
 21
101.871129
 31
0.0
  0
POLYLINE
  5
46
100
AcDbEntity
  8
LAYER_1
 62
     7
100
AcDb2dPolyline
 66
     1
 10
0.0
 20
0.0
 30
0.0
 70
     1
  0
VERTEX
  5
47
100
AcDbEntity
  8
LAYER_1
 62
     7
100
AcDbVertex
100
AcDb2dVertex
 10
71.371354
 20
86.211792
 30
0.0
  0
VERTEX
  5
48
100
AcDbEntity
  8
LAYER_1
 62
     7
100
AcDbVertex
100
AcDb2dVertex
 10
75.355435
 20
86.211792
 30
0.0
  0
VERTEX
  5
49
100
AcDbEntity
  8
LAYER_1
 62
     7
100
AcDbVertex
100
AcDb2dVertex
 10
75.355435
 20
88.406318
 30
0.0
  0
VERTEX
  5
4A
100
AcDbEntity
  8
LAYER_1
 62
     7
100
AcDbVertex
100
AcDb2dVertex
 10
72.29619
 20
88.395294
 30
0.0
  0
VERTEX
  5
4B
100
AcDbEntity
  8
LAYER_1
 62
     7
100
AcDbVertex
100
AcDb2dVertex
 10
69.133248
 20
91.587174
 30
0.0
  0
VERTEX
  5
4C
100
AcDbEntity
  8
LAYER_1
 62
     7
100
AcDbVertex
100
AcDb2dVertex
 10
69.130492
 20
100.389049
 30
0.0
  0
VERTEX
  5
4D
100
AcDbEntity
  8
LAYER_1
 62
     7
100
AcDbVertex
100
AcDb2dVertex
 10
66.935966
 20
100.389049
 30
0.0
  0
VERTEX
  5
4E
100
AcDbEntity
  8
LAYER_1
 62
     7
100
AcDbVertex
100
AcDb2dVertex
 10
66.94544
 20
90.663889
 30
0.0
  0
SEQEND
  5
4F
100
AcDbEntity
  8
LAYER_1
 62
     7
  0
LINE
  5
45
100
AcDbEntity
  8
LAYER_1
 62
     7
100
AcDbLine
 10
116.114876
 20
93.852669
 30
0.0
 11
71.605448
 21
93.852669
 31
0.0
  0
LINE
  5
44
100
AcDbEntity
  8
LAYER_1
 62
     7
100
AcDbLine
 10
141.891425
 20
93.852669
 30
0.0
 11
120.376115
 21
93.852669
 31
0.0
  0
LINE
  5
43
100
AcDbEntity
  8
LAYER_1
 62
     7
100
AcDbLine
 10
185.608998
 20
93.798926
 30
0.0
 11
147.573077
 21
93.798926
 31
0.0
  0
LINE
  5
42
100
AcDbEntity
  8
LAYER_1
 62
     7
100
AcDbLine
 10
86.176135
 20
100.292586
 30
0.0
 11
69.317044
 21
100.292586
 31
0.0
  0
LINE
  5
41
100
AcDbEntity
  8
LAYER_1
 62
     7
100
AcDbLine
 10
185.60762
 20
89.866349
 30
0.0
 11
72.21747
 21
89.866349
 31
0.0
  0
LINE
  5
40
100
AcDbEntity
  8
LAYER_1
 62
     7
100
AcDbLine
 10
185.60762
 20
100.292586
 30
0.0
 11
90.122148
 21
100.292586
 31
0.0
  0
SPLINE
  5
3F
100
AcDbEntity
  8
LAYER_1
 62
     7
100
AcDbSpline
210
0.0
220
0.0
230
1.0
 70
     8
 71
     3
 72
    26
 73
    22
 74
     0
 42
0.00000001
 43
0.00000001
 40
0.0
 40
0.0
 40
0.0
 40
0.0
 40
1.0
 40
1.0
 40
1.0
 40
2.0
 40
2.0
 40
2.0
 40
3.0
 40
3.0
 40
3.0
 40
4.0
 40
4.0
 40
4.0
 40
5.0
 40
5.0
 40
5.0
 40
6.0
 40
6.0
 40
6.0
 40
7.0
 40
7.0
 40
7.0
 40
7.0
 10
185.61037597656249
 20
85.969946289062491
 30
0.0
 10
185.61037597656249
 20
85.969946289062491
 30
0.0
 10
71.202372233072907
 20
85.969946289062491
 30
0.0
 10
71.202372233072907
 20
85.969946289062491
 30
0.0
 10
71.202372233072907
 20
85.969946289062491
 30
0.0
 10
66.701182725694437
 20
90.458216688368054
 30
0.0
 10
66.701182725694437
 20
90.458216688368054
 30
0.0
 10
66.701182725694437
 20
90.458216688368054
 30
0.0
 10
66.663458930121521
 20
165.81382378472222
 30
0.0
 10
66.663458930121521
 20
165.81382378472222
 30
0.0
 10
66.38165011935763
 20
166.50353190104164
 30
0.0
 10
65.682123480902774
 20
166.92796766493055
 30
0.0
 10
64.940222167968741
 20
166.85941026475692
 30
0.0
 10
64.940222167968741
 20
166.85941026475692
 30
0.0
 10
64.945562065972211
 20
89.73199055989582
 30
0.0
 10
64.945562065972211
 20
89.73199055989582
 30
0.0
 10
64.945562065972211
 20
89.73199055989582
 30
0.0
 10
70.42791476779513
 20
84.214670138888877
 30
0.0
 10
70.42791476779513
 20
84.214670138888877
 30
0.0
 10
70.42791476779513
 20
84.214670138888877
 30
0.0
 10
185.61037597656249
 20
84.214670138888877
 30
0.0
 10
185.61037597656249
 20
84.214670138888877
 30
0.0
  0
POLYLINE
  5
39
100
AcDbEntity
  8
LAYER_1
 62
     7
100
AcDb2dPolyline
 66
     1
 10
0.0
 20
0.0
 30
0.0
  0
VERTEX
  5
3A
100
AcDbEntity
  8
LAYER_1
 62
     7
100
AcDbVertex
100
AcDb2dVertex
 10
40.657467
 20
192.837497
 30
0.0
  0
VERTEX
  5
3B
100
AcDbEntity
  8
LAYER_1
 62
     7
100
AcDbVertex
100
AcDb2dVertex
 10
40.649371
 20
180.082548
 30
0.0
  0
VERTEX
  5
3C
100
AcDbEntity
  8
LAYER_1
 62
     7
100
AcDbVertex
100
AcDb2dVertex
 10
40.657467
 20
150.219082
 30
0.0
  0
VERTEX
  5
3D
100
AcDbEntity
  8
LAYER_1
 62
     7
100
AcDbVertex
100
AcDb2dVertex
 10
40.657467
 20
59.262188
 30
0.0
  0
SEQEND
  5
3E
100
AcDbEntity
  8
LAYER_1
 62
     7
  0
POLYLINE
  5
2F
100
AcDbEntity
  8
LAYER_1
 62
     7
100
AcDb2dPolyline
 66
     1
 10
0.0
 20
0.0
 30
0.0
 70
     1
  0
VERTEX
  5
30
100
AcDbEntity
  8
LAYER_1
 62
     7
100
AcDbVertex
100
AcDb2dVertex
 10
78.115129
 20
171.188
 30
0.0
  0
VERTEX
  5
31
100
AcDbEntity
  8
LAYER_1
 62
     7
100
AcDbVertex
100
AcDb2dVertex
 10
78.113751
 20
175.413238
 30
0.0
  0
VERTEX
  5
32
100
AcDbEntity
  8
LAYER_1
 62
     7
100
AcDbVertex
100
AcDb2dVertex
 10
74.020116
 20
175.413238
 30
0.0
  0
VERTEX
  5
33
100
AcDbEntity
  8
LAYER_1
 62
     7
100
AcDbVertex
100
AcDb2dVertex
 10
74.020116
 20
171.188
 30
0.0
  0
VERTEX
  5
34
100
AcDbEntity
  8
LAYER_1
 62
     7
100
AcDbVertex
100
AcDb2dVertex
 10
74.458849
 20
171.188
 30
0.0
  0
VERTEX
  5
35
100
AcDbEntity
  8
LAYER_1
 62
     7
100
AcDbVertex
100
AcDb2dVertex
 10
74.458849
 20
174.974333
 30
0.0
  0
VERTEX
  5
36
100
AcDbEntity
  8
LAYER_1
 62
     7
100
AcDbVertex
100
AcDb2dVertex
 10
77.676223
 20
174.974333
 30
0.0
  0
VERTEX
  5
37
100
AcDbEntity
  8
LAYER_1
 62
     7
100
AcDbVertex
100
AcDb2dVertex
 10
77.676223
 20
171.188
 30
0.0
  0
SEQEND
  5
38
100
AcDbEntity
  8
LAYER_1
 62
     7
  0
LINE
  5
2E
100
AcDbEntity
  8
LAYER_1
 62
     7
100
AcDbLine
 10
64.855473
 20
125.810064
 30
0.0
 11
37.922061
 21
152.743648
 31
0.0
  0
LINE
  5
2D
100
AcDbEntity
  8
LAYER_1
 62
     7
100
AcDbLine
 10
64.785882
 20
127.220831
 30
0.0
 11
37.97167
 21
154.036248
 31
0.0
  0
LINE
  5
2C
100
AcDbEntity
  8
LAYER_1
 62
     7
100
AcDbLine
 10
64.776408
 20
128.572342
 30
0.0
 11
38.02128
 21
155.328676
 31
0.0
  0
MTEXT
  5
2B
100
AcDbEntity
  8
LAYER_1
 62
     7
100
AcDbMText
 10
4.938889
 20
68.999261
 30
0.0
 40
2.531312
 41
0.0
 71
     1
 72
     2
  1
\W0.50;\fMS Gothic|b0|i0|c128;(数字)は、参考寸法。
  7
KANJISTD
210
0.0
220
0.0
230
1.0
 11
1.000001
 21
0.0
 31
0.0
 73
     1
 44
1.0
  0
ENDSEC
  0
SECTION
  2
OBJECTS
  0
DICTIONARY
  5
19
100
AcDbDictionary
280
     0
281
     1
  3
ACAD_GROUP
350
1A
  3
ACAD_MLINESTYLE
350
1B
  3
ACAD_LAYOUT
350
1E
  3
ACAD_PLOTSETTINGS
350
22
  3
ACAD_PLOTSTYLENAME
350
1F
  3
ACAD_WIPEOUT_VARS
350
23
  0
DICTIONARY
  5
1A
102
{ACAD_REACTORS
330
19
102
}
100
AcDbDictionary
280
     0
281
     1
  0
DICTIONARY
  5
1B
102
{ACAD_REACTORS
330
19
102
}
100
AcDbDictionary
280
     0
281
     1
  3
Standard
350
1C
  0
MLINESTYLE
  5
1C
102
{ACAD_REACTORS
330
1B
102
}
100
AcDbMlineStyle
  2
Standard
 70
     0
  3

 62
     0
 51
90.0
 52
90.0
 71
     2
 49
0.5
 62
   256
  6
BYLAYER
 49
-0.5
 62
   256
  6
BYLAYER
  0
ACDBDICTIONARYWDFLT
  5
1F
102
{ACAD_REACTORS
330
19
102
}
100
AcDbDictionary
281
     1
  3
Normal
350
1D
100
AcDbDictionaryWithDefault
340
1D
  0
ACDBPLACEHOLDER
  5
1D
102
{ACAD_REACTORS
330
1F
102
}
  0
LAYOUT
  5
20
102
{ACAD_REACTORS
330
1E
102
}
100
AcDbPlotSettings
  1

  2

  4

  6

 40
0.0
 41
0.0
 42
0.0
 43
0.0
 44
0.0
 45
0.0
 46
0.0
 47
0.0
 48
0.0
 49
0.0
140
0.0
141
0.0
142
1.0
143
1.0
 70
  1024
 72
     0
 73
     0
 74
     0
  7

 75
     0
147
1.0
148
0.0
149
0.0
100
AcDbLayout
  1
Model
 70
     0
 71
     0
 10
0.0
 20
0.0
 11
0.0
 21
0.0
 12
0.0
 22
0.0
 32
0.0
 14
0.0
 24
0.0
 34
0.0
 15
0.0
 25
0.0
 35
0.0
146
0.0
 13
0.0
 23
0.0
 33
0.0
 16
0.0
 26
0.0
 36
0.0
 17
0.0
 27
0.0
 37
0.0
 76
     0
330
A
331
0
345
0
346
0
  0
LAYOUT
  5
21
102
{ACAD_REACTORS
330
1E
102
}
100
AcDbPlotSettings
  1

  2

  4

  6

 40
0.0
 41
0.0
 42
0.0
 43
0.0
 44
0.0
 45
0.0
 46
0.0
 47
0.0
 48
0.0
 49
0.0
140
0.0
141
0.0
142
1.0
143
1.0
 70
     0
 72
     0
 73
     0
 74
     0
  7

 75
     0
147
1.0
148
0.0
149
0.0
100
AcDbLayout
  1
Layout1
 70
     0
 71
     0
 10
0.0
 20
0.0
 11
0.0
 21
0.0
 12
0.0
 22
0.0
 32
0.0
 14
0.0
 24
0.0
 34
0.0
 15
0.0
 25
0.0
 35
0.0
146
0.0
 13
0.0
 23
0.0
 33
0.0
 16
0.0
 26
0.0
 36
0.0
 17
0.0
 27
0.0
 37
0.0
 76
     0
330
B
331
0
345
0
346
0
  0
DICTIONARY
  5
1E
102
{ACAD_REACTORS
330
19
102
}
100
AcDbDictionary
280
     0
281
     1
  3
Layout1
350
21
  3
Model
350
20
  0
DICTIONARY
  5
22
102
{ACAD_REACTORS
330
19
102
}
100
AcDbDictionary
280
     0
281
     1
  0
WIPEOUTVARIABLES
  5
23
100
AcDbWipeoutVariables
 70
     1
  0
ENDSEC
  0
EOF
