  0
SECTION
  2
HEADER
  9
$ACADVER
  1
AC1015
  9
$ACADMAINTVER
 70
     6
  9
$DWGCODEPAGE
  3
ANSI_932
  9
$INSBASE
 10
0.0
 20
0.0
 30
0.0
  9
$EXTMIN
 10
4.938889
 20
65.969789
 30
1.000000E+20
  9
$EXTMAX
 10
203.905556
 20
230.489463
 30
-1.000000E+20
  9
$LIMMIN
 10
4.938889
 20
65.969789
  9
$LIMMAX
 10
203.905556
 20
230.489463
  9
$ORTHOMODE
 70
     0
  9
$REGENMODE
 70
     1
  9
$FILLMODE
 70
     1
  9
$QTEXTMODE
 70
     0
  9
$MIRRTEXT
 70
     1
  9
$LTSCALE
 40
1.0
  9
$ATTMODE
 70
     1
  9
$TEXTSIZE
 40
0.2
  9
$TRACEWID
 40
0.05
  9
$TEXTSTYLE
  7
Standard
  9
$CLAYER
  8
0
  9
$CELTYPE
  6
Continuous
  9
$CECOLOR
 62
   256
  9
$CELTSCALE
 40
1.0
  9
$DISPSILH
 70
     0
  9
$DIMSCALE
 40
1.0
  9
$DIMASZ
 40
0.18
  9
$DIMEXO
 40
0.0625
  9
$DIMDLI
 40
0.38
  9
$DIMRND
 40
0.0
  9
$DIMDLE
 40
0.0
  9
$DIMEXE
 40
0.18
  9
$DIMTP
 40
0.0
  9
$DIMTM
 40
0.0
  9
$DIMTXT
 40
0.18
  9
$DIMCEN
 40
0.09
  9
$DIMTSZ
 40
0.0
  9
$DIMTOL
 70
     0
  9
$DIMLIM
 70
     0
  9
$DIMTIH
 70
     1
  9
$DIMTOH
 70
     1
  9
$DIMSE1
 70
     0
  9
$DIMSE2
 70
     0
  9
$DIMTAD
 70
     0
  9
$DIMZIN
 70
     0
  9
$DIMBLK
  1

  9
$DIMASO
 70
     1
  9
$DIMSHO
 70
     1
  9
$DIMPOST
  1

  9
$DIMAPOST
  1

  9
$DIMALT
 70
     0
  9
$DIMALTD
 70
     2
  9
$DIMALTF
 40
25.4
  9
$DIMLFAC
 40
1.0
  9
$DIMTOFL
 70
     0
  9
$DIMTVP
 40
0.0
  9
$DIMTIX
 70
     0
  9
$DIMSOXD
 70
     0
  9
$DIMSAH
 70
     0
  9
$DIMBLK1
  1

  9
$DIMBLK2
  1

  9
$DIMSTYLE
  2
Standard
  9
$DIMCLRD
 70
     0
  9
$DIMCLRE
 70
     0
  9
$DIMCLRT
 70
     0
  9
$DIMTFAC
 40
1.0
  9
$DIMGAP
 40
0.09
  9
$DIMJUST
 70
     0
  9
$DIMSD1
 70
     0
  9
$DIMSD2
 70
     0
  9
$DIMTOLJ
 70
     1
  9
$DIMTZIN
 70
     0
  9
$DIMALTZ
 70
     0
  9
$DIMALTTZ
 70
     0
  9
$DIMUPT
 70
     0
  9
$DIMDEC
 70
     4
  9
$DIMTDEC
 70
     4
  9
$DIMALTU
 70
     2
  9
$DIMALTTD
 70
     2
  9
$DIMTXSTY
  7
Standard
  9
$DIMAUNIT
 70
     0
  9
$DIMADEC
 70
     0
  9
$DIMALTRND
 40
0.0
  9
$DIMAZIN
 70
     0
  9
$DIMDSEP
 70
     0
  9
$DIMATFIT
 70
     3
  9
$DIMFRAC
 70
     0
  9
$DIMLDRBLK
  1

  9
$DIMLUNIT
 70
     2
  9
$DIMLWD
 70
     0
  9
$DIMLWE
 70
     0
  9
$DIMTMOVE
 70
     0
  9
$LUNITS
 70
     2
  9
$LUPREC
 70
     4
  9
$SKETCHINC
 40
0.1
  9
$FILLETRAD
 40
0.0
  9
$AUNITS
 70
     0
  9
$AUPREC
 70
     0
  9
$MENU
  1
acad
  9
$ELEVATION
 40
0.0
  9
$PELEVATION
 40
0.0
  9
$THICKNESS
 40
0.0
  9
$LIMCHECK
 70
     0
  9
$CHAMFERA
 40
0.0
  9
$CHAMFERB
 40
0.0
  9
$CHAMFERC
 40
0.0
  9
$CHAMFERD
 40
0.0
  9
$SKPOLY
 70
     0
  9
$TDCREATE
 40
0.000000000
  9
$TDUCREATE
 40
0.000000000
  9
$TDUPDATE
 40
0.000000000
  9
$TDUUPDATE
 40
0.000000000
  9
$TDINDWG
 40
0.0000000000
  9
$TDUSRTIMER
 40
0.0000000000
  9
$USRTIMER
 70
     1
  9
$ANGBASE
 50
0.0
  9
$ANGDIR
 70
     0
  9
$PDMODE
 70
     0
  9
$PDSIZE
 40
0.0
  9
$PLINEWID
 40
0.0
  9
$SPLFRAME
 70
     0
  9
$SPLINETYPE
 70
     6
  9
$SPLINESEGS
 70
     8
  9
$HANDSEED
  5
1D0
  9
$SURFTAB1
 70
     6
  9
$SURFTAB2
 70
     6
  9
$SURFTYPE
 70
     6
  9
$SURFU
 70
     6
  9
$SURFV
 70
     6
  9
$UCSBASE
  2

  9
$UCSNAME
  2

  9
$UCSORG
 10
0.0
 20
0.0
 30
0.0
  9
$UCSXDIR
 10
1.0
 20
0.0
 30
0.0
  9
$UCSYDIR
 10
0.0
 20
1.0
 30
0.0
  9
$UCSORTHOREF
  2

  9
$UCSORTHOVIEW
 70
     0
  9
$UCSORGTOP
 10
0.0
 20
0.0
 30
0.0
  9
$UCSORGBOTTOM
 10
0.0
 20
0.0
 30
0.0
  9
$UCSORGLEFT
 10
0.0
 20
0.0
 30
0.0
  9
$UCSORGRIGHT
 10
0.0
 20
0.0
 30
0.0
  9
$UCSORGFRONT
 10
0.0
 20
0.0
 30
0.0
  9
$UCSORGBACK
 10
0.0
 20
0.0
 30
0.0
  9
$PUCSBASE
  2

  9
$PUCSNAME
  2

  9
$PUCSORG
 10
0.0
 20
0.0
 30
0.0
  9
$PUCSXDIR
 10
1.0
 20
0.0
 30
0.0
  9
$PUCSYDIR
 10
0.0
 20
1.0
 30
0.0
  9
$PUCSORTHOREF
  2

  9
$PUCSORTHOVIEW
 70
     0
  9
$PUCSORGTOP
 10
0.0
 20
0.0
 30
0.0
  9
$PUCSORGBOTTOM
 10
0.0
 20
0.0
 30
0.0
  9
$PUCSORGLEFT
 10
0.0
 20
0.0
 30
0.0
  9
$PUCSORGRIGHT
 10
0.0
 20
0.0
 30
0.0
  9
$PUCSORGFRONT
 10
0.0
 20
0.0
 30
0.0
  9
$PUCSORGBACK
 10
0.0
 20
0.0
 30
0.0
  9
$USERI1
 70
     0
  9
$USERI2
 70
     0
  9
$USERI3
 70
     0
  9
$USERI4
 70
     0
  9
$USERI5
 70
     0
  9
$USERR1
 40
0.0
  9
$USERR2
 40
0.0
  9
$USERR3
 40
0.0
  9
$USERR4
 40
0.0
  9
$USERR5
 40
0.0
  9
$WORLDVIEW
 70
     1
  9
$SHADEDGE
 70
     3
  9
$SHADEDIF
 70
    70
  9
$TILEMODE
 70
     1
  9
$MAXACTVP
 70
    16
  9
$PINSBASE
 10
0.0
 20
0.0
 30
0.0
  9
$PLIMCHECK
 70
     0
  9
$PEXTMIN
 10
1.000000E+20
 20
1.000000E+20
 30
1.000000E+20
  9
$PEXTMAX
 10
-1.000000E+20
 20
-1.000000E+20
 30
-1.000000E+20
  9
$PLIMMIN
 10
0.0
 20
0.0
  9
$PLIMMAX
 10
12.0
 20
9.0
  9
$UNITMODE
 70
     0
  9
$VISRETAIN
 70
     0
  9
$PLINEGEN
 70
     1
  9
$PSLTSCALE
 70
     0
  9
$TREEDEPTH
 70
  3020
  9
$CMLSTYLE
  2
Standard
  9
$CMLJUST
 70
     0
  9
$CMLSCALE
 40
1.0
  9
$PROXYGRAPHICS
 70
     0
  9
$MEASUREMENT
 70
     0
  9
$CELWEIGHT
370
     0
  9
$ENDCAPS
280
     0
  9
$JOINSTYLE
280
     0
  9
$LWDISPLAY
290
     0
  9
$INSUNITS
 70
     0
  9
$HYPERLINKBASE
  1

  9
$XEDIT
290
     1
  9
$CEPSNTYPE
380
     0
  9
$PSTYLEMODE
290
     1
  9
$FINGERPRINTGUID
  2

  9
$VERSIONGUID
  2

  9
$EXTNAMES
290
     1
  9
$PSVPSCALE
 40
0.0
  0
ENDSEC
  0
SECTION
  2
CLASSES
  0
CLASS
  1
LWPOLYLINE
  2
AcDbPolyline
  3
"AutoCAD"
 90
        0
280
     0
281
     1
  0
CLASS
  1
IMAGE
  2
AcDbRasterImage
  3
ISM
 90
      127
280
     0
281
     1
  0
CLASS
  1
OLE2FRAME
  2
AcDbOle2Frame
  3
""
 90
        0
280
     0
281
     1
  0
CLASS
  1
HATCH
  2
AcDbHatch
  3
"ACAD_SEDONA"
 90
        0
280
     0
281
     1
  0
CLASS
  1
DICTIONARYVAR
  2
AcDbDictionaryVar
  3
"AutoCAD"
 90
        0
280
     0
281
     0
  0
CLASS
  1
RASTERVARIABLES
  2
AcDbRasterVariables
  3
ISM
 90
        0
280
     0
281
     0
  0
CLASS
  1
IMAGEDEF
  2
AcDbRasterImageDef
  3
ISM
 90
        0
280
     0
281
     0
  0
CLASS
  1
IMAGEDEF_REACTOR
  2
AcDbRasterImageDefReactor
  3
ISM
 90
        1
280
     0
281
     0
  0
CLASS
  1
IDBUFFER
  2
AcDbIdBuffer
  3
"Acad"
 90
        0
280
     0
281
     0
  0
CLASS
  1
SPATIAL_FILTER
  2
AcDbSpatialFilter
  3
"Acad"
 90
        0
280
     0
281
     0
  0
CLASS
  1
XRECORD
  2
AcDbXrecord
  3
"<Built In>"
 90
        0
280
     0
281
     0
  0
CLASS
  1
SORTENTSTABLE
  2
AcDbSortentsTable
  3
"AutoCAD"
 90
        0
280
     0
281
     0
  0
CLASS
  1
LAYER_INDEX
  2
AcDbLayerIndex
  3
"Acad"
 90
        0
280
     0
281
     0
  0
CLASS
  1
SPATIAL_INDEX
  2
AcDbSpatialIndex
  3
"Acad"
 90
        0
280
     0
281
     0
  0
CLASS
  1
OBJECT_PTR
  2
CAseDLPNTableRecord
  3
"ASE-LPNTableRecord"
 90
        1
280
     0
281
     0
  0
CLASS
  1
LAYOUT
  2
AcDbLayout
  3
"AutoCAD 2000"
 90
        1
280
     0
281
     0
  0
CLASS
  1
PLOTSETTINGS
  2
AcDbPlotSettings
  3
"AutoCAD 2000"
 90
        1
280
     0
281
     0
  0
CLASS
  1
ACDBDICTIONARYWDFLT
  2
AcDbDictionaryWithDefault
  3
"AutoCAD 2000"
 90
        1
280
     0
281
     0
  0
CLASS
  1
ACDBPLACEHOLDER
  2
AcDbPlaceHolder
  3
"AutoCAD 2000"
 90
        1
280
     0
281
     0
  0
CLASS
  1
VBA_PROJECT
  2
AcDbVbaProject
  3
"acadvba"
 90
        1
280
     0
281
     0
  0
CLASS
  1
WIPEOUT
  2
AcDbWipeout
  3
WipeOut|AutoCAD Express Tool|expresstools@autodesk.com
 90
      127
280
     0
281
     1
  0
CLASS
  1
WIPEOUTVARIABLES
  2
AcDbWipeoutVariables
  3
WipeOut|AutoCAD Express Tool|expresstools@autodesk.com
 90
        0
280
     0
281
     0
  0
CLASS
  1
RTEXT
  2
RText
  3
RText|AutoCAD Express Tool|expresstools@autodesk.com
 90
        0
280
     0
281
     1
  0
CLASS
  1
ARCALIGNEDTEXT
  2
AcDbArcAlignedText
  3
ATEXT|AutoCAD Express Tool|expresstools@autodesk.com
 90
        0
280
     0
281
     1
  0
ENDSEC
  0
SECTION
  2
TABLES
  0
TABLE
  2
VPORT
  5
7
100
AcDbSymbolTable
 70
     1
  0
VPORT
  5
15
100
AcDbSymbolTableRecord
100
AcDbViewportTableRecord
  2
*ACTIVE
 70
     0
 10
0.0
 20
0.0
 11
1.0
 21
1.0
 12
6.591288
 22
4.579184
 13
0.0
 23
0.0
 14
1.0
 24
1.0
 15
0.0
 25
0.0
 16
0.0
 26
0.0
 36
1.0
 17
0.0
 27
0.0
 37
0.0
 40
9.158369
 41
0.688564
 42
50.0
 43
0.0
 44
0.0
 50
0.0
 51
0.0
 71
     0
 72
   100
 73
     1
 74
     1
 75
     0
 76
     0
 77
     0
 78
     0
281
     0
 65
     0
110
0.0
120
0.0
130
0.0
111
1.0
121
0.0
131
0.0
112
0.0
122
1.0
132
0.0
345
0
346
0
 79
     0
146
0.0
  0
ENDTAB
  0
TABLE
  2
LTYPE
  5
4
100
AcDbSymbolTable
 70
     4
  0
LTYPE
  5
11
100
AcDbSymbolTableRecord
100
AcDbLinetypeTableRecord
  2
ByBlock
 70
    64
  3

 72
    65
 73
     0
 40
0.0
  0
LTYPE
  5
12
100
AcDbSymbolTableRecord
100
AcDbLinetypeTableRecord
  2
ByLayer
 70
    64
  3

 72
    65
 73
     0
 40
0.0
  0
LTYPE
  5
13
100
AcDbSymbolTableRecord
100
AcDbLinetypeTableRecord
  2
Continuous
 70
    64
  3
Solid line
 72
    65
 73
     0
 40
0.0
  0
LTYPE
  5
EA
100
AcDbSymbolTableRecord
100
AcDbLinetypeTableRecord
  2
AI9-LType1
 70
    64
  3
Illustrator Dash Style No.1
 72
    65
 73
     2
 40
1.353397
 49
0.902264
 74
     0
 49
-0.451132
 74
     0
  0
ENDTAB
  0
TABLE
  2
LAYER
  5
2
100
AcDbSymbolTable
 70
     4
  0
LAYER
  5
14
100
AcDbSymbolTableRecord
100
AcDbLayerTableRecord
  2
0
 70
     0
 62
     7
  6
Continuous
290
     1
370
    -3
390
1D
  0
LAYER
  5
28
100
AcDbSymbolTableRecord
100
AcDbLayerTableRecord
  2
レイヤー_1
 70
     0
 62
   160
  6
Continuous
290
     1
370
    -3
390
1F
  0
LAYER
  5
29
100
AcDbSymbolTableRecord
100
AcDbLayerTableRecord
  2
0
 70
     0
 62
     7
  6
Continuous
290
     1
370
    -3
390
1F
  0
LAYER
  5
2A
100
AcDbSymbolTableRecord
100
AcDbLayerTableRecord
  2
LAYER_1
 70
     0
 62
     7
  6
Continuous
290
     1
370
    -3
390
1F
  0
ENDTAB
  0
TABLE
  2
STYLE
  5
3
100
AcDbSymbolTable
 70
     5
  0
STYLE
  5
17
100
AcDbSymbolTableRecord
100
AcDbTextStyleTableRecord
  2
Standard
 70
     0
 40
0.0
 41
1.0
 50
0.0
 71
     0
 42
0.0
  3
txt
  4

  0
STYLE
  5
24
100
AcDbSymbolTableRecord
100
AcDbTextStyleTableRecord
  2
STD
 70
     0
 40
0.0
 41
1.0
 50
0.0
 71
     0
 42
0.0
  3
txt
  4

  0
STYLE
  5
25
100
AcDbSymbolTableRecord
100
AcDbTextStyleTableRecord
  2
TATESTD
 70
     4
 40
0.0
 41
1.0
 50
0.0
 71
     0
 42
0.0
  3
txt
  4

  0
STYLE
  5
26
100
AcDbSymbolTableRecord
100
AcDbTextStyleTableRecord
  2
KANJISTD
 70
     0
 40
0.0
 41
1.0
 50
0.0
 71
     0
 42
0.0
  3
txt
  4
extfont
  0
STYLE
  5
27
100
AcDbSymbolTableRecord
100
AcDbTextStyleTableRecord
  2
KANJITATE
 70
     4
 40
0.0
 41
1.0
 50
0.0
 71
     0
 42
0.0
  3
txt
  4
extfont
  0
ENDTAB
  0
TABLE
  2
VIEW
  5
5
100
AcDbSymbolTable
 70
     0
  0
ENDTAB
  0
TABLE
  2
UCS
  5
6
100
AcDbSymbolTable
 70
     0
  0
ENDTAB
  0
TABLE
  2
APPID
  5
8
100
AcDbSymbolTable
 70
     1
  0
APPID
  5
16
100
AcDbSymbolTableRecord
100
AcDbRegAppTableRecord
  2
ACAD
 70
     0
  0
ENDTAB
  0
TABLE
  2
DIMSTYLE
  5
9
100
AcDbSymbolTable
 70
     1
100
AcDbDimStyleTable
 71
     0
  0
DIMSTYLE
105
18
100
AcDbSymbolTableRecord
100
AcDbDimStyleTableRecord
  2
Standard
 70
     0
  3

  4

 40
1.0
 41
0.18
 42
0.0625
 43
0.38
 44
0.18
 45
0.0
 46
0.0
 47
0.0
 48
0.0
 71
     0
 72
     0
 73
     1
 74
     1
 75
     0
 76
     0
 77
     0
 78
     0
 79
     0
140
0.18
141
0.09
142
0.0
143
25.4
144
1.0
145
0.0
146
1.0
147
0.09
148
0.0
170
     0
171
     2
172
     0
173
     0
174
     0
175
     0
176
     0
177
     0
178
     0
179
     0
271
     4
272
     4
273
     2
274
     2
275
     0
276
     0
277
     2
278
    46
279
     0
280
     0
281
     0
282
     0
283
     1
284
     0
285
     0
286
     0
288
     0
340
17
341
0
342
0
343
0
344
0
371
    -2
372
    -2
  0
ENDTAB
  0
TABLE
  2
BLOCK_RECORD
  5
1
100
AcDbSymbolTable
 70
     2
  0
BLOCK_RECORD
  5
A
100
AcDbSymbolTableRecord
100
AcDbBlockTableRecord
  2
*MODEL_SPACE
340
20
  0
BLOCK_RECORD
  5
B
100
AcDbSymbolTableRecord
100
AcDbBlockTableRecord
  2
*PAPER_SPACE
340
21
  0
BLOCK_RECORD
  5
2B
100
AcDbSymbolTableRecord
100
AcDbBlockTableRecord
  2
AI9-BLK1
340
0
  0
BLOCK_RECORD
  5
93
100
AcDbSymbolTableRecord
100
AcDbBlockTableRecord
  2
AI9-BLK2
340
0
  0
ENDTAB
  0
ENDSEC
  0
SECTION
  2
BLOCKS
  0
BLOCK
  5
D
100
AcDbEntity
  8
0
100
AcDbBlockBegin
  2
*MODEL_SPACE
 70
     0
 10
0.0
 20
0.0
 30
0.0
  3
*MODEL_SPACE
  1

  0
ENDBLK
  5
E
100
AcDbEntity
  8
0
100
AcDbBlockEnd
  0
BLOCK
  5
F
100
AcDbEntity
 67
     1
  8
0
100
AcDbBlockBegin
  2
*PAPER_SPACE
 70
     0
 10
0.0
 20
0.0
 30
0.0
  3
*PAPER_SPACE
  1

  0
ENDBLK
  5
10
100
AcDbEntity
 67
     1
  8
0
100
AcDbBlockEnd
  0
BLOCK
  5
2D
100
AcDbEntity
  8
LAYER_1
 62
     7
100
AcDbBlockBegin
  2
AI9-BLK1
 70
     0
 10
0.0
 20
0.0
 30
0.0
  3
AI9-BLK1
  1

  0
LINE
  5
3E
100
AcDbEntity
  8
LAYER_1
 62
     7
100
AcDbLine
 10
0.226946
 20
4.631414
 30
0.0
 11
-1.640296
 21
2.763828
 31
0.0
  0
LINE
  5
3D
100
AcDbEntity
  8
LAYER_1
 62
     7
100
AcDbLine
 10
1.722462
 20
2.505101
 30
0.0
 11
-1.730902
 21
-0.948263
 31
0.0
  0
LINE
  5
3C
100
AcDbEntity
  8
LAYER_1
 62
     7
100
AcDbLine
 10
1.743649
 20
-1.097091
 30
0.0
 11
-0.084663
 21
-2.925058
 31
0.0
  0
LINE
  5
3B
100
AcDbEntity
  8
LAYER_1
 62
     7
100
AcDbLine
 10
1.708164
 20
-4.419541
 30
0.0
 11
1.559681
 21
-4.569402
 31
0.0
  0
LINE
  5
3A
100
AcDbEntity
  8
LAYER_1
 62
     7
100
AcDbLine
 10
1.735553
 20
4.329279
 30
0.0
 11
-1.725907
 21
0.867647
 31
0.0
  0
LINE
  5
39
100
AcDbEntity
  8
LAYER_1
 62
     7
100
AcDbLine
 10
1.717122
 20
0.687469
 30
0.0
 11
-1.023107
 21
-2.05276
 31
0.0
  0
LINE
  5
38
100
AcDbEntity
  8
LAYER_1
 62
     7
100
AcDbLine
 10
1.713504
 20
-2.603631
 30
0.0
 11
0.642596
 21
-3.674367
 31
0.0
  0
LINE
  5
37
100
AcDbEntity
  8
LAYER_1
 62
     7
100
AcDbLine
 10
-0.65586
 20
4.760605
 30
0.0
 11
1.723151
 21
2.381422
 31
0.0
  0
LINE
  5
36
100
AcDbEntity
  8
LAYER_1
 62
     7
100
AcDbLine
 10
-1.736414
 20
0.211357
 30
0.0
 11
1.726251
 21
-3.251653
 31
0.0
  0
LINE
  5
35
100
AcDbEntity
  8
LAYER_1
 62
     7
100
AcDbLine
 10
-1.744338
 20
2.141644
 30
0.0
 11
1.728146
 21
-1.330324
 31
0.0
  0
LINE
  5
34
100
AcDbEntity
  8
LAYER_1
 62
     7
100
AcDbLine
 10
-1.734692
 20
3.915179
 30
0.0
 11
1.753123
 21
0.42702
 31
0.0
  0
POLYLINE
  5
2F
100
AcDbEntity
  8
LAYER_1
 62
     7
100
AcDb2dPolyline
 66
     1
 10
0.0
 20
0.0
 30
0.0
  0
VERTEX
  5
30
100
AcDbEntity
  8
LAYER_1
 62
     7
100
AcDbVertex
100
AcDb2dVertex
 10
1.734692
 20
-4.760605
 30
0.0
  0
VERTEX
  5
31
100
AcDbEntity
  8
LAYER_1
 62
     7
100
AcDbVertex
100
AcDb2dVertex
 10
1.733141
 20
4.737179
 30
0.0
  0
VERTEX
  5
32
100
AcDbEntity
  8
LAYER_1
 62
     7
100
AcDbVertex
100
AcDb2dVertex
 10
-1.702997
 20
4.737179
 30
0.0
  0
SEQEND
  5
33
100
AcDbEntity
  8
LAYER_1
 62
     7
  0
LINE
  5
2E
100
AcDbEntity
  8
LAYER_1
 62
     7
100
AcDbLine
 10
0.330299
 20
4.734767
 30
0.0
 11
-1.753123
 21
2.651173
 31
0.0
  0
ENDBLK
  5
3F
100
AcDbEntity
  8
LAYER_1
100
AcDbBlockEnd
  0
BLOCK
  5
95
100
AcDbEntity
  8
LAYER_1
 62
     7
100
AcDbBlockBegin
  2
AI9-BLK2
 70
     0
 10
0.0
 20
0.0
 30
0.0
  3
AI9-BLK2
  1

  0
SPLINE
  5
A0
100
AcDbEntity
  8
LAYER_1
 62
     7
100
AcDbSpline
210
0.0
220
0.0
230
1.0
 70
     8
 71
     3
 72
    17
 73
    13
 74
     0
 42
0.00000001
 43
0.00000001
 40
0.0
 40
0.0
 40
0.0
 40
0.0
 40
1.0
 40
1.0
 40
1.0
 40
2.0
 40
2.0
 40
2.0
 40
3.0
 40
3.0
 40
3.0
 40
4.0
 40
4.0
 40
4.0
 40
4.0
 10
52.247715250651034
 20
-0.6228732638888889
 30
0.0
 10
52.481981743706591
 20
-0.4702555338541666
 30
0.0
 10
52.616340467664926
 20
-0.2036051432291667
 30
0.0
 10
52.599459499782981
 20
0.0754475911458333
 30
0.0
 10
52.523667399088538
 20
0.4413167317708333
 30
0.0
 10
52.192249213324651
 20
0.6969428168402777
 30
0.0
 10
51.819145372178816
 20
0.6776502821180555
 30
0.0
 10
51.453276231553815
 20
0.601858181423611
 30
0.0
 10
51.197650146484371
 20
0.2707845052083333
 30
0.0
 10
51.216598171657985
 20
-0.1023193359375
 30
0.0
 10
51.384718831380205
 20
-0.5064290364583333
 30
0.0
 10
51.822590467664924
 20
-0.7272596571180555
 30
0.0
 10
52.247715250651034
 20
-0.6228732638888889
 30
0.0
  0
SPLINE
  5
9F
100
AcDbEntity
  8
LAYER_1
 62
     7
100
AcDbSpline
210
0.0
220
0.0
230
1.0
 70
     8
 71
     3
 72
    17
 73
    13
 74
     0
 42
0.00000001
 43
0.00000001
 40
0.0
 40
0.0
 40
0.0
 40
0.0
 40
1.0
 40
1.0
 40
1.0
 40
2.0
 40
2.0
 40
2.0
 40
3.0
 40
3.0
 40
3.0
 40
4.0
 40
4.0
 40
4.0
 40
4.0
 10
43.295979139539924
 20
-0.6228732638888889
 30
0.0
 10
43.530245632595481
 20
-0.4702555338541666
 30
0.0
 10
43.664604356553816
 20
-0.2036051432291667
 30
0.0
 10
43.647723388671871
 20
0.0754475911458333
 30
0.0
 10
43.571931287977428
 20
0.4413167317708333
 30
0.0
 10
43.240513102213541
 20
0.6969428168402777
 30
0.0
 10
42.867409261067706
 20
0.6776502821180555
 30
0.0
 10
42.501540120442705
 20
0.601858181423611
 30
0.0
 10
42.245914035373261
 20
0.2707845052083333
 30
0.0
 10
42.264862060546868
 20
-0.1023193359375
 30
0.0
 10
42.432982720269095
 20
-0.5064290364583333
 30
0.0
 10
42.870854356553814
 20
-0.7272596571180555
 30
0.0
 10
43.295979139539924
 20
-0.6228732638888889
 30
0.0
  0
SPLINE
  5
9E
100
AcDbEntity
  8
LAYER_1
 62
     7
100
AcDbSpline
210
0.0
220
0.0
230
1.0
 70
     8
 71
     3
 72
    29
 73
    25
 74
     0
 42
0.00000001
 43
0.00000001
 40
0.0
 40
0.0
 40
0.0
 40
0.0
 40
1.0
 40
1.0
 40
1.0
 40
2.0
 40
2.0
 40
2.0
 40
3.0
 40
3.0
 40
3.0
 40
4.0
 40
4.0
 40
4.0
 40
5.0
 40
5.0
 40
5.0
 40
6.0
 40
6.0
 40
6.0
 40
7.0
 40
7.0
 40
7.0
 40
8.0
 40
8.0
 40
8.0
 40
8.0
 10
34.004212103949648
 20
-0.7110677083333332
 30
0.0
 10
34.189213731553814
 20
-0.7110677083333332
 30
0.0
 10
34.366636149088535
 20
-0.6376871744791666
 30
0.0
 10
34.497205268012152
 20
-0.5067735460069444
 30
0.0
 10
34.628118896484374
 20
-0.3762044270833333
 30
0.0
 10
34.701499430338536
 20
-0.1987820095486111
 30
0.0
 10
34.701499430338536
 20
-0.0141248914930556
 30
0.0
 10
34.701499430338536
 20
0.1708767361111111
 30
0.0
 10
34.628118896484374
 20
0.3479546440972222
 30
0.0
 10
34.497205268012152
 20
0.4788682725694444
 30
0.0
 10
34.366636149088535
 20
0.6094373914930555
 30
0.0
 10
34.189213731553814
 20
0.6828179253472222
 30
0.0
 10
34.004212103949648
 20
0.6828179253472222
 30
0.0
 10
33.819554985894094
 20
0.6828179253472222
 30
0.0
 10
33.642132568359372
 20
0.6094373914930555
 30
0.0
 10
33.511563449435762
 20
0.4785237630208333
 30
0.0
 10
33.380994330512152
 20
0.3479546440972222
 30
0.0
 10
33.307613796657982
 20
0.1708767361111111
 30
0.0
 10
33.307613796657982
 20
-0.0141248914930556
 30
0.0
 10
33.307613796657982
 20
-0.1987820095486111
 30
0.0
 10
33.380994330512152
 20
-0.3762044270833333
 30
0.0
 10
33.511563449435762
 20
-0.5067735460069444
 30
0.0
 10
33.642132568359372
 20
-0.6376871744791666
 30
0.0
 10
33.819554985894094
 20
-0.7110677083333332
 30
0.0
 10
34.004212103949648
 20
-0.7110677083333332
 30
0.0
  0
SPLINE
  5
9D
100
AcDbEntity
  8
LAYER_1
 62
     7
100
AcDbSpline
210
0.0
220
0.0
230
1.0
 70
     8
 71
     3
 72
    17
 73
    13
 74
     0
 42
0.00000001
 43
0.00000001
 40
0.0
 40
0.0
 40
0.0
 40
0.0
 40
1.0
 40
1.0
 40
1.0
 40
2.0
 40
2.0
 40
2.0
 40
3.0
 40
3.0
 40
3.0
 40
4.0
 40
4.0
 40
4.0
 40
4.0
 10
25.392506917317707
 20
-0.6228732638888889
 30
0.0
 10
25.626773410373261
 20
-0.4702555338541666
 30
0.0
 10
25.761132134331596
 20
-0.2036051432291667
 30
0.0
 10
25.744251166449651
 20
0.0754475911458333
 30
0.0
 10
25.668114556206596
 20
0.4413167317708333
 30
0.0
 10
25.337040879991317
 20
0.6969428168402777
 30
0.0
 10
24.963937038845483
 20
0.6776502821180555
 30
0.0
 10
24.598067898220485
 20
0.601858181423611
 30
0.0
 10
24.342441813151041
 20
0.2707845052083333
 30
0.0
 10
24.361389838324651
 20
-0.1023193359375
 30
0.0
 10
24.529510498046871
 20
-0.5064290364583333
 30
0.0
 10
24.967382134331594
 20
-0.7272596571180555
 30
0.0
 10
25.392506917317707
 20
-0.6228732638888889
 30
0.0
  0
SPLINE
  5
9C
100
AcDbEntity
  8
LAYER_1
 62
     7
100
AcDbSpline
210
0.0
220
0.0
230
1.0
 70
     8
 71
     3
 72
    17
 73
    13
 74
     0
 42
0.00000001
 43
0.00000001
 40
0.0
 40
0.0
 40
0.0
 40
0.0
 40
1.0
 40
1.0
 40
1.0
 40
2.0
 40
2.0
 40
2.0
 40
3.0
 40
3.0
 40
3.0
 40
4.0
 40
4.0
 40
4.0
 40
4.0
 10
16.440770806206597
 20
-0.6228732638888889
 30
0.0
 10
16.675037299262151
 20
-0.4702555338541666
 30
0.0
 10
16.809396023220483
 20
-0.2036051432291667
 30
0.0
 10
16.792515055338541
 20
0.0754475911458333
 30
0.0
 10
16.716378445095483
 20
0.4413167317708333
 30
0.0
 10
16.385304768880207
 20
0.6969428168402777
 30
0.0
 10
16.012200927734373
 20
0.6776502821180555
 30
0.0
 10
15.646331787109373
 20
0.601858181423611
 30
0.0
 10
15.390705702039929
 20
0.2707845052083333
 30
0.0
 10
15.40965372721354
 20
-0.1023193359375
 30
0.0
 10
15.577774386935763
 20
-0.5064290364583333
 30
0.0
 10
16.015646023220484
 20
-0.7272596571180555
 30
0.0
 10
16.440770806206597
 20
-0.6228732638888889
 30
0.0
  0
SPLINE
  5
9B
100
AcDbEntity
  8
LAYER_1
 62
     7
100
AcDbSpline
210
0.0
220
0.0
230
1.0
 70
     8
 71
     3
 72
    29
 73
    25
 74
     0
 42
0.00000001
 43
0.00000001
 40
0.0
 40
0.0
 40
0.0
 40
0.0
 40
1.0
 40
1.0
 40
1.0
 40
2.0
 40
2.0
 40
2.0
 40
3.0
 40
3.0
 40
3.0
 40
4.0
 40
4.0
 40
4.0
 40
5.0
 40
5.0
 40
5.0
 40
6.0
 40
6.0
 40
6.0
 40
7.0
 40
7.0
 40
7.0
 40
8.0
 40
8.0
 40
8.0
 40
8.0
 10
1.8080722384982637
 20
-0.6828179253472222
 30
0.0
 10
1.9927293565538193
 20
-0.6828179253472222
 30
0.0
 10
2.1701517740885414
 20
-0.6094373914930555
 30
0.0
 10
2.3007208930121528
 20
-0.4788682725694444
 30
0.0
 10
2.4312900119357637
 20
-0.3479546440972222
 30
0.0
 10
2.5050150553385415
 20
-0.1708767361111111
 30
0.0
 10
2.5050150553385415
 20
0.0141248914930556
 30
0.0
 10
2.5050150553385415
 20
0.1987820095486111
 30
0.0
 10
2.4312900119357637
 20
0.3762044270833333
 30
0.0
 10
2.3007208930121528
 20
0.5067735460069444
 30
0.0
 10
2.1701517740885414
 20
0.6376871744791666
 30
0.0
 10
1.9927293565538193
 20
0.7110677083333332
 30
0.0
 10
1.8080722384982637
 20
0.7110677083333332
 30
0.0
 10
1.6230706108940971
 20
0.7110677083333332
 30
0.0
 10
1.445992702907986
 20
0.6376871744791666
 30
0.0
 10
1.3150790744357637
 20
0.5067735460069444
 30
0.0
 10
1.1845099555121528
 20
0.3762044270833333
 30
0.0
 10
1.1107849121093749
 20
0.1987820095486111
 30
0.0
 10
1.1107849121093749
 20
0.0141248914930556
 30
0.0
 10
1.1107849121093749
 20
-0.1708767361111111
 30
0.0
 10
1.1845099555121528
 20
-0.3479546440972222
 30
0.0
 10
1.3150790744357637
 20
-0.4788682725694444
 30
0.0
 10
1.445992702907986
 20
-0.6094373914930555
 30
0.0
 10
1.6230706108940971
 20
-0.6828179253472222
 30
0.0
 10
1.8080722384982637
 20
-0.6828179253472222
 30
0.0
  0
SPLINE
  5
9A
100
AcDbEntity
  8
LAYER_1
 62
     7
100
AcDbSpline
210
0.0
220
0.0
230
1.0
 70
     8
 71
     3
 72
    29
 73
    25
 74
     0
 42
0.00000001
 43
0.00000001
 40
0.0
 40
0.0
 40
0.0
 40
0.0
 40
1.0
 40
1.0
 40
1.0
 40
2.0
 40
2.0
 40
2.0
 40
3.0
 40
3.0
 40
3.0
 40
4.0
 40
4.0
 40
4.0
 40
5.0
 40
5.0
 40
5.0
 40
6.0
 40
6.0
 40
6.0
 40
7.0
 40
7.0
 40
7.0
 40
8.0
 40
8.0
 40
8.0
 40
8.0
 10
-7.1440083821614575
 20
-0.6828179253472222
 30
0.0
 10
-6.9590067545572909
 20
-0.6828179253472222
 30
0.0
 10
-6.78192884657118
 20
-0.6094373914930555
 30
0.0
 10
-6.6510152180989577
 20
-0.4788682725694444
 30
0.0
 10
-6.5204460991753468
 20
-0.3479546440972222
 30
0.0
 10
-6.4470655653211804
 20
-0.1708767361111111
 30
0.0
 10
-6.4470655653211804
 20
0.0141248914930556
 30
0.0
 10
-6.4470655653211804
 20
0.1987820095486111
 30
0.0
 10
-6.5204460991753468
 20
0.3762044270833333
 30
0.0
 10
-6.6510152180989577
 20
0.5067735460069444
 30
0.0
 10
-6.78192884657118
 20
0.6376871744791666
 30
0.0
 10
-6.9590067545572909
 20
0.7110677083333332
 30
0.0
 10
-7.1440083821614575
 20
0.7110677083333332
 30
0.0
 10
-7.3286655002170136
 20
0.7110677083333332
 30
0.0
 10
-7.506087917751735
 20
0.6376871744791666
 30
0.0
 10
-7.6366570366753468
 20
0.5067735460069444
 30
0.0
 10
-7.7675706651475691
 20
0.3762044270833333
 30
0.0
 10
-7.8409511990017355
 20
0.1987820095486111
 30
0.0
 10
-7.8409511990017355
 20
0.0141248914930556
 30
0.0
 10
-7.8409511990017355
 20
-0.1708767361111111
 30
0.0
 10
-7.7675706651475691
 20
-0.3479546440972222
 30
0.0
 10
-7.6366570366753468
 20
-0.4788682725694444
 30
0.0
 10
-7.506087917751735
 20
-0.6094373914930555
 30
0.0
 10
-7.3286655002170136
 20
-0.6828179253472222
 30
0.0
 10
-7.1440083821614575
 20
-0.6828179253472222
 30
0.0
  0
SPLINE
  5
99
100
AcDbEntity
  8
LAYER_1
 62
     7
100
AcDbSpline
210
0.0
220
0.0
230
1.0
 70
     8
 71
     3
 72
    29
 73
    25
 74
     0
 42
0.00000001
 43
0.00000001
 40
0.0
 40
0.0
 40
0.0
 40
0.0
 40
1.0
 40
1.0
 40
1.0
 40
2.0
 40
2.0
 40
2.0
 40
3.0
 40
3.0
 40
3.0
 40
4.0
 40
4.0
 40
4.0
 40
5.0
 40
5.0
 40
5.0
 40
6.0
 40
6.0
 40
6.0
 40
7.0
 40
7.0
 40
7.0
 40
8.0
 40
8.0
 40
8.0
 40
8.0
 10
-25.047480604383679
 20
-0.6828179253472222
 30
0.0
 10
-24.86247897677951
 20
-0.6828179253472222
 30
0.0
 10
-24.6854010687934
 20
-0.6094373914930555
 30
0.0
 10
-24.554487440321179
 20
-0.4788682725694444
 30
0.0
 10
-24.423918321397569
 20
-0.3479546440972222
 30
0.0
 10
-24.350537787543402
 20
-0.1708767361111111
 30
0.0
 10
-24.350537787543402
 20
0.0141248914930556
 30
0.0
 10
-24.350537787543402
 20
0.1987820095486111
 30
0.0
 10
-24.423918321397569
 20
0.3762044270833333
 30
0.0
 10
-24.554487440321179
 20
0.5067735460069444
 30
0.0
 10
-24.6854010687934
 20
0.6376871744791666
 30
0.0
 10
-24.86247897677951
 20
0.7110677083333332
 30
0.0
 10
-25.047480604383679
 20
0.7110677083333332
 30
0.0
 10
-25.232137722439234
 20
0.7110677083333332
 30
0.0
 10
-25.409560139973955
 20
0.6376871744791666
 30
0.0
 10
-25.540129258897569
 20
0.5067735460069444
 30
0.0
 10
-25.67104288736979
 20
0.3762044270833333
 30
0.0
 10
-25.744423421223956
 20
0.1987820095486111
 30
0.0
 10
-25.744423421223956
 20
0.0141248914930556
 30
0.0
 10
-25.744423421223956
 20
-0.1708767361111111
 30
0.0
 10
-25.67104288736979
 20
-0.3479546440972222
 30
0.0
 10
-25.540129258897569
 20
-0.4788682725694444
 30
0.0
 10
-25.409560139973955
 20
-0.6094373914930555
 30
0.0
 10
-25.232137722439234
 20
-0.6828179253472222
 30
0.0
 10
-25.047480604383679
 20
-0.6828179253472222
 30
0.0
  0
SPLINE
  5
98
100
AcDbEntity
  8
LAYER_1
 62
     7
100
AcDbSpline
210
0.0
220
0.0
230
1.0
 70
     8
 71
     3
 72
    23
 73
    19
 74
     0
 42
0.00000001
 43
0.00000001
 40
0.0
 40
0.0
 40
0.0
 40
0.0
 40
1.0
 40
1.0
 40
1.0
 40
2.0
 40
2.0
 40
2.0
 40
3.0
 40
3.0
 40
3.0
 40
4.0
 40
4.0
 40
4.0
 40
5.0
 40
5.0
 40
5.0
 40
6.0
 40
6.0
 40
6.0
 40
6.0
 10
-33.999044460720484
 20
-0.6828179253472222
 30
0.0
 10
-33.814215087890624
 20
-0.6828179253472222
 30
0.0
 10
-33.636964925130208
 20
-0.6094373914930555
 30
0.0
 10
-33.506223551432292
 20
-0.4788682725694444
 30
0.0
 10
-33.375654432508675
 20
-0.3479546440972222
 30
0.0
 10
-33.302273898654512
 20
-0.1708767361111111
 30
0.0
 10
-33.302273898654512
 20
0.0141248914930556
 30
0.0
 10
-33.314676242404509
 20
0.2098063151041666
 30
0.0
 10
-33.404248725043402
 20
0.3930853949652777
 30
0.0
 10
-33.551698811848958
 20
0.5226209852430556
 30
0.0
 10
-33.699148898654514
 20
0.6525010850694444
 30
0.0
 10
-33.891901991102429
 20
0.7183024088541666
 30
0.0
 10
-34.087927924262146
 20
0.7059000651041666
 30
0.0
 10
-34.453624810112842
 20
0.6301079644097222
 30
0.0
 10
-34.709423149956592
 20
0.2990342881944444
 30
0.0
 10
-34.690302870008679
 20
-0.0740695529513889
 30
0.0
 10
-34.641727023654511
 20
-0.4199571397569444
 30
0.0
 10
-34.348032633463539
 20
-0.6783393012152778
 30
0.0
 10
-33.999044460720484
 20
-0.6828179253472222
 30
0.0
  0
SPLINE
  5
97
100
AcDbEntity
  8
LAYER_1
 62
     7
100
AcDbSpline
210
0.0
220
0.0
230
1.0
 70
     8
 71
     3
 72
    23
 73
    19
 74
     0
 42
0.00000001
 43
0.00000001
 40
0.0
 40
0.0
 40
0.0
 40
0.0
 40
1.0
 40
1.0
 40
1.0
 40
2.0
 40
2.0
 40
2.0
 40
3.0
 40
3.0
 40
3.0
 40
4.0
 40
4.0
 40
4.0
 40
5.0
 40
5.0
 40
5.0
 40
6.0
 40
6.0
 40
6.0
 40
6.0
 10
-42.950952826605899
 20
-0.6828179253472222
 30
0.0
 10
-42.765951199001734
 20
-0.6828179253472222
 30
0.0
 10
-42.588701036241318
 20
-0.6094373914930555
 30
0.0
 10
-42.457959662543402
 20
-0.4788682725694444
 30
0.0
 10
-42.327218288845479
 20
-0.3479546440972222
 30
0.0
 10
-42.253837754991316
 20
-0.1708767361111111
 30
0.0
 10
-42.253837754991316
 20
0.0141248914930556
 30
0.0
 10
-42.266412353515619
 20
0.2098063151041666
 30
0.0
 10
-42.356157090928818
 20
0.3930853949652777
 30
0.0
 10
-42.503434922960068
 20
0.5226209852430556
 30
0.0
 10
-42.650885009765624
 20
0.6525010850694444
 30
0.0
 10
-42.843638102213539
 20
0.7183024088541666
 30
0.0
 10
-43.039664035373256
 20
0.7059000651041666
 30
0.0
 10
-43.405360921223952
 20
0.6301079644097222
 30
0.0
 10
-43.661159261067702
 20
0.2990342881944444
 30
0.0
 10
-43.642211235894095
 20
-0.0740695529513889
 30
0.0
 10
-43.593463134765621
 20
-0.4199571397569444
 30
0.0
 10
-43.299940999348955
 20
-0.6783393012152778
 30
0.0
 10
-42.950952826605899
 20
-0.6828179253472222
 30
0.0
  0
SPLINE
  5
96
100
AcDbEntity
  8
LAYER_1
 62
     7
100
AcDbSpline
210
0.0
220
0.0
230
1.0
 70
     8
 71
     3
 72
    29
 73
    25
 74
     0
 42
0.00000001
 43
0.00000001
 40
0.0
 40
0.0
 40
0.0
 40
0.0
 40
1.0
 40
1.0
 40
1.0
 40
2.0
 40
2.0
 40
2.0
 40
3.0
 40
3.0
 40
3.0
 40
4.0
 40
4.0
 40
4.0
 40
5.0
 40
5.0
 40
5.0
 40
6.0
 40
6.0
 40
6.0
 40
7.0
 40
7.0
 40
7.0
 40
8.0
 40
8.0
 40
8.0
 40
8.0
 10
-51.902516682942704
 20
-0.6828179253472222
 30
0.0
 10
-51.717687310112844
 20
-0.6828179253472222
 30
0.0
 10
-51.540437147352428
 20
-0.6094373914930555
 30
0.0
 10
-51.409695773654512
 20
-0.4788682725694444
 30
0.0
 10
-51.278954399956589
 20
-0.3479546440972222
 30
0.0
 10
-51.205573866102426
 20
-0.1708767361111111
 30
0.0
 10
-51.205573866102426
 20
0.0141248914930556
 30
0.0
 10
-51.205573866102426
 20
0.1987820095486111
 30
0.0
 10
-51.278954399956589
 20
0.3762044270833333
 30
0.0
 10
-51.409695773654512
 20
0.5067735460069444
 30
0.0
 10
-51.540437147352428
 20
0.6376871744791666
 30
0.0
 10
-51.717687310112844
 20
0.7110677083333332
 30
0.0
 10
-51.902516682942704
 20
0.7110677083333332
 30
0.0
 10
-52.087346055772564
 20
0.7110677083333332
 30
0.0
 10
-52.264596218532979
 20
0.6376871744791666
 30
0.0
 10
-52.395337592230895
 20
0.5067735460069444
 30
0.0
 10
-52.526078965928818
 20
0.3762044270833333
 30
0.0
 10
-52.599459499782981
 20
0.1987820095486111
 30
0.0
 10
-52.599459499782981
 20
0.0141248914930556
 30
0.0
 10
-52.599459499782981
 20
-0.1708767361111111
 30
0.0
 10
-52.526078965928818
 20
-0.3479546440972222
 30
0.0
 10
-52.395337592230895
 20
-0.4788682725694444
 30
0.0
 10
-52.264596218532979
 20
-0.6094373914930555
 30
0.0
 10
-52.087346055772564
 20
-0.6828179253472222
 30
0.0
 10
-51.902516682942704
 20
-0.6828179253472222
 30
0.0
  0
ENDBLK
  5
A1
100
AcDbEntity
  8
LAYER_1
100
AcDbBlockEnd
  0
ENDSEC
  0
SECTION
  2
ENTITIES
  0
LINE
  5
1CF
100
AcDbEntity
  8
LAYER_1
 62
     7
100
AcDbLine
 10
193.017331
 20
92.081546
 30
0.0
 11
73.612906
 21
92.081546
 31
0.0
  0
LINE
  5
1CE
100
AcDbEntity
  8
LAYER_1
 62
     7
100
AcDbLine
 10
50.346625
 20
175.954979
 30
0.0
 11
50.346625
 21
169.65166
 31
0.0
  0
MTEXT
  5
1CD
100
AcDbEntity
  8
LAYER_1
 62
     7
100
AcDbMText
 10
24.625687
 20
123.10532
 30
0.0
 40
2.531312
 41
0.0
 71
     1
 72
     2
  1
\W0.50;\fMS Gothic|b0|i0|c128;水上400以上
  7
KANJISTD
210
0.0
220
0.0
230
1.0
 11
0.0
 21
1.0
 31
0.0
 73
     1
 44
1.0
  0
POLYLINE
  5
1C7
100
AcDbEntity
  8
LAYER_1
 62
     7
100
AcDb2dPolyline
 66
     1
 10
0.0
 20
0.0
 30
0.0
  0
VERTEX
  5
1C8
100
AcDbEntity
  8
LAYER_1
 62
     7
100
AcDbVertex
100
AcDb2dVertex
 10
40.80595
 20
173.468998
 30
0.0
  0
VERTEX
  5
1C9
100
AcDbEntity
  8
LAYER_1
 62
     7
100
AcDbVertex
100
AcDb2dVertex
 10
27.722856
 20
173.468998
 30
0.0
  0
VERTEX
  5
1CA
100
AcDbEntity
  8
LAYER_1
 62
     7
100
AcDbVertex
100
AcDb2dVertex
 10
27.722856
 20
89.754039
 30
0.0
  0
VERTEX
  5
1CB
100
AcDbEntity
  8
LAYER_1
 62
     7
100
AcDbVertex
100
AcDb2dVertex
 10
64.105476
 20
89.754039
 30
0.0
  0
SEQEND
  5
1CC
100
AcDbEntity
  8
LAYER_1
 62
     7
  0
MTEXT
  5
1C6
100
AcDbEntity
  8
LAYER_1
 62
     7
100
AcDbMText
 10
180.090988
 20
123.69153
 30
0.0
 40
2.531312
 41
0.0
 71
     1
 72
     2
  1
\W0.50;\fMS Gothic|b0|i0|c128;ポリエチレンフィルム(t=0.15)
  7
KANJISTD
210
0.0
220
0.0
230
1.0
 11
1.000001
 21
0.0
 31
0.0
 73
     1
 44
1.0
  0
POLYLINE
  5
1C0
100
AcDbEntity
  8
LAYER_1
 62
     7
100
AcDb2dPolyline
 66
     1
 10
0.0
 20
0.0
 30
0.0
  0
VERTEX
  5
1C1
100
AcDbEntity
  8
LAYER_1
 62
     7
100
AcDbVertex
100
AcDb2dVertex
 10
141.685409
 20
92.344751
 30
0.0
  0
VERTEX
  5
1C2
100
AcDbEntity
  8
LAYER_1
 62
     7
100
AcDbVertex
100
AcDb2dVertex
 10
141.685409
 20
73.340571
 30
0.0
  0
VERTEX
  5
1C3
100
AcDbEntity
  8
LAYER_1
 62
     7
100
AcDbVertex
100
AcDb2dVertex
 10
67.468061
 20
73.340571
 30
0.0
  0
VERTEX
  5
1C4
100
AcDbEntity
  8
LAYER_1
 62
     7
100
AcDbVertex
100
AcDb2dVertex
 10
67.468061
 20
96.770665
 30
0.0
  0
SEQEND
  5
1C5
100
AcDbEntity
  8
LAYER_1
 62
     7
  0
MTEXT
  5
1BF
100
AcDbEntity
  8
LAYER_1
 62
     7
100
AcDbMText
 10
18.764574
 20
212.941424
 30
0.0
 40
3.977779
 41
0.0
 71
     1
 72
     2
  1
\W0.50;\fMS Gothic|b0|i0|c128;金属笠木タイプ　取付金具一体化方式
  7
KANJISTD
210
0.0
220
0.0
230
1.0
 11
1.000001
 21
0.0
 31
0.0
 73
     1
 44
1.0
  0
POLYLINE
  5
1B9
100
AcDbEntity
  8
LAYER_1
 62
     7
100
AcDb2dPolyline
 66
     1
 10
0.0
 20
0.0
 30
0.0
 70
     1
  0
VERTEX
  5
1BA
100
AcDbEntity
  8
LAYER_1
 62
     7
100
AcDbVertex
100
AcDb2dVertex
 10
112.620516
 20
219.566271
 30
0.0
  0
VERTEX
  5
1BB
100
AcDbEntity
  8
LAYER_1
 62
     7
100
AcDbVertex
100
AcDb2dVertex
 10
112.620516
 20
230.25089
 30
0.0
  0
VERTEX
  5
1BC
100
AcDbEntity
  8
LAYER_1
 62
     7
100
AcDbVertex
100
AcDb2dVertex
 10
8.258583
 20
230.25089
 30
0.0
  0
VERTEX
  5
1BD
100
AcDbEntity
  8
LAYER_1
 62
     7
100
AcDbVertex
100
AcDb2dVertex
 10
8.258583
 20
219.566271
 30
0.0
  0
SEQEND
  5
1BE
100
AcDbEntity
  8
LAYER_1
 62
     7
  0
MTEXT
  5
1B8
100
AcDbEntity
  8
LAYER_1
 62
     7
100
AcDbMText
 10
12.373233
 20
228.030581
 30
0.0
 40
5.062623
 41
0.0
 71
     1
 72
     2
  1
\W0.50;\fMS Gothic|b0|i0|c128;■乾式保護工法標準納まり詳細図
  7
KANJISTD
210
0.0
220
0.0
230
1.0
 11
1.000001
 21
0.0
 31
0.0
 73
     1
 44
1.0
  0
MTEXT
  5
1B7
100
AcDbEntity
  8
LAYER_1
 62
     7
100
AcDbMText
 10
4.938889
 20
68.999261
 30
0.0
 40
2.531312
 41
0.0
 71
     1
 72
     2
  1
\W0.50;\fMS Gothic|b0|i0|c128;(数字)は、参考寸法。
  7
KANJISTD
210
0.0
220
0.0
230
1.0
 11
1.000001
 21
0.0
 31
0.0
 73
     1
 44
1.0
  0
MTEXT
  5
1B6
100
AcDbEntity
  8
LAYER_1
 62
     7
100
AcDbMText
 10
61.950224
 20
202.753027
 30
0.0
 40
2.531312
 41
0.0
 71
     1
 72
     2
  1
\W0.50;\fMS Gothic|b0|i0|c128;ゴムアスファルト系シール材
  7
KANJISTD
210
0.0
220
0.0
230
1.0
 11
1.000001
 21
0.0
 31
0.0
 73
     1
 44
1.0
  0
MTEXT
  5
1B5
100
AcDbEntity
  8
LAYER_1
 62
     7
100
AcDbMText
 10
67.430854
 20
199.130164
 30
0.0
 40
2.531312
 41
0.0
 71
     1
 72
     2
  1
\W0.50;\fMS Gothic|b0|i0|c128;押え金物
  7
KANJISTD
210
0.0
220
0.0
230
1.0
 11
1.000001
 21
0.0
 31
0.0
 73
     1
 44
1.0
  0
SPLINE
  5
1B4
100
AcDbEntity
  8
LAYER_1
 62
     7
100
AcDbSpline
210
0.0
220
0.0
230
1.0
 70
     8
 71
     3
 72
    17
 73
    13
 74
     0
 42
0.00000001
 43
0.00000001
 40
0.0
 40
0.0
 40
0.0
 40
0.0
 40
1.0
 40
1.0
 40
1.0
 40
2.0
 40
2.0
 40
2.0
 40
3.0
 40
3.0
 40
3.0
 40
4.0
 40
4.0
 40
4.0
 40
4.0
 10
52.849659559461799
 20
175.43184136284719
 30
0.0
 10
52.923729112413191
 20
175.49867621527775
 30
0.0
 10
52.96627604166666
 20
175.5932440863715
 30
0.0
 10
52.966965060763883
 20
175.69280734592013
 30
0.0
 10
52.965587022569437
 20
175.88452690972221
 30
0.0
 10
52.810213216145826
 20
176.03938395182291
 30
0.0
 10
52.618493652343744
 20
176.04058973524303
 30
0.0
 10
52.426774088541663
 20
176.03938395182291
 30
0.0
 10
52.271572536892357
 20
175.88452690972221
 30
0.0
 10
52.270022243923606
 20
175.69280734592013
 30
0.0
 10
52.359422471788193
 20
175.46198594835067
 30
0.0
 10
52.617804633246521
 20
175.34588623046872
 30
0.0
 10
52.849659559461799
 20
175.43184136284719
 30
0.0
  0
LINE
  5
1B3
100
AcDbEntity
  8
LAYER_1
 62
     7
100
AcDbLine
 10
134.974018
 20
107.231698
 30
0.0
 11
140.113067
 21
107.231698
 31
0.0
  0
LINE
  5
1B2
100
AcDbEntity
  8
LAYER_1
 62
     7
100
AcDbLine
 10
143.414157
 20
107.231698
 30
0.0
 11
148.553206
 21
107.231698
 31
0.0
  0
LINE
  5
1B1
100
AcDbEntity
  8
LAYER_1
 62
     7
100
AcDbLine
 10
88.036831
 20
98.274794
 30
0.0
 11
88.036831
 21
93.358987
 31
0.0
  0
POLYLINE
  5
1AC
100
AcDbEntity
  8
LAYER_1
 62
     7
100
AcDb2dPolyline
 66
     1
 10
0.0
 20
0.0
 30
0.0
  0
VERTEX
  5
1AD
100
AcDbEntity
  8
LAYER_1
 62
     7
100
AcDbVertex
100
AcDb2dVertex
 10
137.096197
 20
96.319358
 30
0.0
  0
VERTEX
  5
1AE
100
AcDbEntity
  8
LAYER_1
 62
     7
100
AcDbVertex
100
AcDb2dVertex
 10
130.347944
 20
108.288997
 30
0.0
  0
VERTEX
  5
1AF
100
AcDbEntity
  8
LAYER_1
 62
     7
100
AcDbVertex
100
AcDb2dVertex
 10
128.167198
 20
108.288997
 30
0.0
  0
SEQEND
  5
1B0
100
AcDbEntity
  8
LAYER_1
 62
     7
  0
SPLINE
  5
1AB
100
AcDbEntity
  8
LAYER_1
 62
     7
100
AcDbSpline
210
0.0
220
0.0
230
1.0
 70
     8
 71
     3
 72
    17
 73
    13
 74
     0
 42
0.00000001
 43
0.00000001
 40
0.0
 40
0.0
 40
0.0
 40
0.0
 40
1.0
 40
1.0
 40
1.0
 40
2.0
 40
2.0
 40
2.0
 40
3.0
 40
3.0
 40
3.0
 40
4.0
 40
4.0
 40
4.0
 40
4.0
 10
137.14236111111109
 20
95.956244574652771
 30
0.0
 10
136.95046929253471
 20
95.957278103298606
 30
0.0
 10
136.79509548611111
 20
96.112307400173606
 30
0.0
 10
136.79371744791666
 20
96.304199218749986
 30
0.0
 10
136.88328993055555
 20
96.535020616319429
 30
0.0
 10
137.14132758246527
 20
96.65112033420138
 30
0.0
 10
137.37352701822914
 20
96.564992947048609
 30
0.0
 10
137.44759657118055
 20
96.498158094618049
 30
0.0
 10
137.48997124565972
 20
96.403762478298603
 30
0.0
 10
137.49066026475694
 20
96.304199218749986
 30
0.0
 10
137.48928222656249
 20
96.112307400173606
 30
0.0
 10
137.33390842013887
 20
95.957278103298606
 30
0.0
 10
137.14236111111109
 20
95.956244574652771
 30
0.0
  0
POLYLINE
  5
1A6
100
AcDbEntity
  8
LAYER_1
 62
     7
100
AcDb2dPolyline
 66
     1
 10
0.0
 20
0.0
 30
0.0
  0
VERTEX
  5
1A7
100
AcDbEntity
  8
LAYER_1
 62
     7
100
AcDbVertex
100
AcDb2dVertex
 10
141.645101
 20
100.40903
 30
0.0
  0
VERTEX
  5
1A8
100
AcDbEntity
  8
LAYER_1
 62
     7
100
AcDbVertex
100
AcDb2dVertex
 10
133.675217
 20
114.341686
 30
0.0
  0
VERTEX
  5
1A9
100
AcDbEntity
  8
LAYER_1
 62
     7
100
AcDbVertex
100
AcDb2dVertex
 10
131.494472
 20
114.341686
 30
0.0
  0
SEQEND
  5
1AA
100
AcDbEntity
  8
LAYER_1
 62
     7
  0
SPLINE
  5
1A5
100
AcDbEntity
  8
LAYER_1
 62
     7
100
AcDbSpline
210
0.0
220
0.0
230
1.0
 70
     8
 71
     3
 72
    17
 73
    13
 74
     0
 42
0.00000001
 43
0.00000001
 40
0.0
 40
0.0
 40
0.0
 40
0.0
 40
1.0
 40
1.0
 40
1.0
 40
2.0
 40
2.0
 40
2.0
 40
3.0
 40
3.0
 40
3.0
 40
4.0
 40
4.0
 40
4.0
 40
4.0
 10
141.69126519097222
 20
100.04453938802082
 30
0.0
 10
141.49971788194443
 20
100.04591742621527
 30
0.0
 10
141.34434407552081
 20
100.20094672309027
 30
0.0
 10
141.34296603732636
 20
100.39249403211805
 30
0.0
 10
141.43219401041665
 20
100.62331542968749
 30
0.0
 10
141.69057617187499
 20
100.73941514756943
 30
0.0
 10
141.92243109809027
 20
100.65328776041666
 30
0.0
 10
141.99650065104166
 20
100.5864529079861
 30
0.0
 10
142.03887532552082
 20
100.49205729166665
 30
0.0
 10
142.03990885416664
 20
100.39249403211805
 30
0.0
 10
142.0381863064236
 20
100.20094672309027
 30
0.0
 10
141.8831570095486
 20
100.04591742621527
 30
0.0
 10
141.69126519097222
 20
100.04453938802082
 30
0.0
  0
POLYLINE
  5
1A0
100
AcDbEntity
  8
LAYER_1
 62
     7
100
AcDb2dPolyline
 66
     1
 10
0.0
 20
0.0
 30
0.0
  0
VERTEX
  5
1A1
100
AcDbEntity
  8
LAYER_1
 62
     7
100
AcDbVertex
100
AcDb2dVertex
 10
77.310699
 20
105.107452
 30
0.0
  0
VERTEX
  5
1A2
100
AcDbEntity
  8
LAYER_1
 62
     7
100
AcDbVertex
100
AcDb2dVertex
 10
89.697884
 20
126.777102
 30
0.0
  0
VERTEX
  5
1A3
100
AcDbEntity
  8
LAYER_1
 62
     7
100
AcDbVertex
100
AcDb2dVertex
 10
91.87863
 20
126.777102
 30
0.0
  0
SEQEND
  5
1A4
100
AcDbEntity
  8
LAYER_1
 62
     7
  0
SPLINE
  5
19F
100
AcDbEntity
  8
LAYER_1
 62
     7
100
AcDbSpline
210
0.0
220
0.0
230
1.0
 70
     8
 71
     3
 72
    17
 73
    13
 74
     0
 42
0.00000001
 43
0.00000001
 40
0.0
 40
0.0
 40
0.0
 40
0.0
 40
1.0
 40
1.0
 40
1.0
 40
2.0
 40
2.0
 40
2.0
 40
3.0
 40
3.0
 40
3.0
 40
4.0
 40
4.0
 40
4.0
 40
4.0
 10
77.495528157552073
 20
104.8311550564236
 30
0.0
 10
77.56942545572916
 20
104.89798990885416
 30
0.0
 10
77.611972384982636
 20
104.9923855251736
 30
0.0
 10
77.612833658854157
 20
105.09194878472221
 30
0.0
 10
77.611627875434024
 20
105.28418511284721
 30
0.0
 10
77.456426323784711
 20
105.43955891927082
 30
0.0
 10
77.264362250434019
 20
105.44128146701388
 30
0.0
 10
77.072298177083326
 20
105.43955891927082
 30
0.0
 10
76.917096625434027
 20
105.28418511284721
 30
0.0
 10
76.91589084201388
 20
105.09194878472221
 30
0.0
 10
77.005291069878467
 20
104.86147189670137
 30
0.0
 10
77.263500976562497
 20
104.74502766927083
 30
0.0
 10
77.495528157552073
 20
104.8311550564236
 30
0.0
  0
POLYLINE
  5
19A
100
AcDbEntity
  8
LAYER_1
 62
     7
100
AcDb2dPolyline
 66
     1
 10
0.0
 20
0.0
 30
0.0
  0
VERTEX
  5
19B
100
AcDbEntity
  8
LAYER_1
 62
     7
100
AcDbVertex
100
AcDb2dVertex
 10
68.908283
 20
101.329905
 30
0.0
  0
VERTEX
  5
19C
100
AcDbEntity
  8
LAYER_1
 62
     7
100
AcDbVertex
100
AcDb2dVertex
 10
89.415903
 20
137.293945
 30
0.0
  0
VERTEX
  5
19D
100
AcDbEntity
  8
LAYER_1
 62
     7
100
AcDbVertex
100
AcDb2dVertex
 10
91.596821
 20
137.293945
 30
0.0
  0
SEQEND
  5
19E
100
AcDbEntity
  8
LAYER_1
 62
     7
  0
SPLINE
  5
199
100
AcDbEntity
  8
LAYER_1
 62
     7
100
AcDbSpline
210
0.0
220
0.0
230
1.0
 70
     8
 71
     3
 72
    17
 73
    13
 74
     0
 42
0.00000001
 43
0.00000001
 40
0.0
 40
0.0
 40
0.0
 40
0.0
 40
1.0
 40
1.0
 40
1.0
 40
2.0
 40
2.0
 40
2.0
 40
3.0
 40
3.0
 40
3.0
 40
4.0
 40
4.0
 40
4.0
 40
4.0
 10
69.093112521701386
 20
101.05360785590277
 30
0.0
 10
69.167009819878473
 20
101.12044270833333
 30
0.0
 10
69.209556749131934
 20
101.21483832465277
 30
0.0
 10
69.21041802300347
 20
101.31440158420138
 30
0.0
 10
69.208695475260413
 20
101.50629340277777
 30
0.0
 10
69.0534939236111
 20
101.66097819010416
 30
0.0
 10
68.861946614583331
 20
101.66235622829861
 30
0.0
 10
68.67022705078125
 20
101.66097819010416
 30
0.0
 10
68.515025499131937
 20
101.50629340277777
 30
0.0
 10
68.51330295138888
 20
101.31440158420138
 30
0.0
 10
68.602875434027766
 20
101.08358018663193
 30
0.0
 10
68.861085340711796
 20
100.96748046875
 30
0.0
 10
69.093112521701386
 20
101.05360785590277
 30
0.0
  0
POLYLINE
  5
194
100
AcDbEntity
  8
LAYER_1
 62
     7
100
AcDb2dPolyline
 66
     1
 10
0.0
 20
0.0
 30
0.0
  0
VERTEX
  5
195
100
AcDbEntity
  8
LAYER_1
 62
     7
100
AcDbVertex
100
AcDb2dVertex
 10
75.788139
 20
100.022835
 30
0.0
  0
VERTEX
  5
196
100
AcDbEntity
  8
LAYER_1
 62
     7
100
AcDbVertex
100
AcDb2dVertex
 10
86.803143
 20
119.26645
 30
0.0
  0
VERTEX
  5
197
100
AcDbEntity
  8
LAYER_1
 62
     7
100
AcDbVertex
100
AcDb2dVertex
 10
88.983888
 20
119.26645
 30
0.0
  0
SEQEND
  5
198
100
AcDbEntity
  8
LAYER_1
 62
     7
  0
SPLINE
  5
193
100
AcDbEntity
  8
LAYER_1
 62
     7
100
AcDbSpline
210
0.0
220
0.0
230
1.0
 70
     8
 71
     3
 72
    17
 73
    13
 74
     0
 42
0.00000001
 43
0.00000001
 40
0.0
 40
0.0
 40
0.0
 40
0.0
 40
1.0
 40
1.0
 40
1.0
 40
2.0
 40
2.0
 40
2.0
 40
3.0
 40
3.0
 40
3.0
 40
4.0
 40
4.0
 40
4.0
 40
4.0
 10
75.972968207465271
 20
99.746538628472209
 30
0.0
 10
76.046865505642359
 20
99.813373480902769
 30
0.0
 10
76.08941243489582
 20
99.908113606770826
 30
0.0
 10
76.090273708767356
 20
100.00767686631943
 30
0.0
 10
76.089067925347209
 20
100.19956868489582
 30
0.0
 10
75.93386637369791
 20
100.35494249131943
 30
0.0
 10
75.741802300347217
 20
100.35666503906249
 30
0.0
 10
75.549738226996524
 20
100.35494249131943
 30
0.0
 10
75.394536675347211
 20
100.19956868489582
 30
0.0
 10
75.393330891927079
 20
100.00767686631943
 30
0.0
 10
75.482731119791666
 20
99.776855468749986
 30
0.0
 10
75.740941026475681
 20
99.660411241319437
 30
0.0
 10
75.972968207465271
 20
99.746538628472209
 30
0.0
  0
POLYLINE
  5
18E
100
AcDbEntity
  8
LAYER_1
 62
     7
100
AcDb2dPolyline
 66
     1
 10
0.0
 20
0.0
 30
0.0
  0
VERTEX
  5
18F
100
AcDbEntity
  8
LAYER_1
 62
     7
100
AcDbVertex
100
AcDb2dVertex
 10
52.554243
 20
175.814247
 30
0.0
  0
VERTEX
  5
190
100
AcDbEntity
  8
LAYER_1
 62
     7
100
AcDbVertex
100
AcDb2dVertex
 10
64.885273
 20
198.00049
 30
0.0
  0
VERTEX
  5
191
100
AcDbEntity
  8
LAYER_1
 62
     7
100
AcDbVertex
100
AcDb2dVertex
 10
67.066018
 20
198.00049
 30
0.0
  0
SEQEND
  5
192
100
AcDbEntity
  8
LAYER_1
 62
     7
  0
POLYLINE
  5
189
100
AcDbEntity
  8
LAYER_1
 62
     7
100
AcDb2dPolyline
 66
     1
 10
0.0
 20
0.0
 30
0.0
  0
VERTEX
  5
18A
100
AcDbEntity
  8
LAYER_1
 62
     7
100
AcDbVertex
100
AcDb2dVertex
 10
44.415032
 20
174.508728
 30
0.0
  0
VERTEX
  5
18B
100
AcDbEntity
  8
LAYER_1
 62
     7
100
AcDbVertex
100
AcDb2dVertex
 10
59.772407
 20
201.449375
 30
0.0
  0
VERTEX
  5
18C
100
AcDbEntity
  8
LAYER_1
 62
     7
100
AcDbVertex
100
AcDb2dVertex
 10
61.953152
 20
201.449375
 30
0.0
  0
SEQEND
  5
18D
100
AcDbEntity
  8
LAYER_1
 62
     7
  0
SPLINE
  5
188
100
AcDbEntity
  8
LAYER_1
 62
     7
100
AcDbSpline
210
0.0
220
0.0
230
1.0
 70
     8
 71
     3
 72
    17
 73
    13
 74
     0
 42
0.00000001
 43
0.00000001
 40
0.0
 40
0.0
 40
0.0
 40
0.0
 40
1.0
 40
1.0
 40
1.0
 40
2.0
 40
2.0
 40
2.0
 40
3.0
 40
3.0
 40
3.0
 40
4.0
 40
4.0
 40
4.0
 40
4.0
 10
44.600033908420137
 20
174.23243136935761
 30
0.0
 10
44.673931206597217
 20
174.29909396701387
 30
0.0
 10
44.716478135850693
 20
174.39366183810762
 30
0.0
 10
44.717339409722221
 20
174.49339735243055
 30
0.0
 10
44.71578911675347
 20
174.68511691623263
 30
0.0
 10
44.560587565104164
 20
174.83997395833333
 30
0.0
 10
44.368868001302076
 20
174.84117974175345
 30
0.0
 10
44.177148437499994
 20
174.83997395833333
 30
0.0
 10
44.021946885850689
 20
174.68494466145833
 30
0.0
 10
44.020224338107631
 20
174.49339735243055
 30
0.0
 10
44.109796820746524
 20
174.26257595486109
 30
0.0
 10
44.367834472656249
 20
174.14630398220484
 30
0.0
 10
44.600033908420137
 20
174.23243136935761
 30
0.0
  0
POLYLINE
  5
183
100
AcDbEntity
  8
LAYER_1
 62
     7
100
AcDb2dPolyline
 66
     1
 10
0.0
 20
0.0
 30
0.0
  0
VERTEX
  5
184
100
AcDbEntity
  8
LAYER_1
 62
     7
100
AcDbVertex
100
AcDb2dVertex
 10
66.314126
 20
177.760554
 30
0.0
  0
VERTEX
  5
185
100
AcDbEntity
  8
LAYER_1
 62
     7
100
AcDbVertex
100
AcDb2dVertex
 10
75.355435
 20
193.789377
 30
0.0
  0
VERTEX
  5
186
100
AcDbEntity
  8
LAYER_1
 62
     7
100
AcDbVertex
100
AcDb2dVertex
 10
77.53618
 20
193.789377
 30
0.0
  0
SEQEND
  5
187
100
AcDbEntity
  8
LAYER_1
 62
     7
  0
SPLINE
  5
182
100
AcDbEntity
  8
LAYER_1
 62
     7
100
AcDbSpline
210
0.0
220
0.0
230
1.0
 70
     8
 71
     3
 72
    17
 73
    13
 74
     0
 42
0.00000001
 43
0.00000001
 40
0.0
 40
0.0
 40
0.0
 40
0.0
 40
1.0
 40
1.0
 40
1.0
 40
2.0
 40
2.0
 40
2.0
 40
3.0
 40
3.0
 40
3.0
 40
4.0
 40
4.0
 40
4.0
 40
4.0
 10
66.498955620659714
 20
177.4844292534722
 30
0.0
 10
66.572852918836801
 20
177.55109185112846
 30
0.0
 10
66.615572102864576
 20
177.64565972222221
 30
0.0
 10
66.616261121961799
 20
177.74522298177081
 30
0.0
 10
66.614883083767353
 20
177.93711480034722
 30
0.0
 10
66.459509277343741
 20
178.09197184244789
 30
0.0
 10
66.26778971354166
 20
178.09317762586804
 30
0.0
 10
66.076070149739579
 20
178.09197184244789
 30
0.0
 10
65.920868598090266
 20
177.93711480034722
 30
0.0
 10
65.919318305121521
 20
177.74522298177081
 30
0.0
 10
66.008718532986109
 20
177.51457383897568
 30
0.0
 10
66.266928439670139
 20
177.39830186631943
 30
0.0
 10
66.498955620659714
 20
177.4844292534722
 30
0.0
  0
POLYLINE
  5
17D
100
AcDbEntity
  8
LAYER_1
 62
     7
100
AcDb2dPolyline
 66
     1
 10
0.0
 20
0.0
 30
0.0
  0
VERTEX
  5
17E
100
AcDbEntity
  8
LAYER_1
 62
     7
100
AcDbVertex
100
AcDb2dVertex
 10
71.699672
 20
176.030427
 30
0.0
  0
VERTEX
  5
17F
100
AcDbEntity
  8
LAYER_1
 62
     7
100
AcDbVertex
100
AcDb2dVertex
 10
79.09612
 20
188.968138
 30
0.0
  0
VERTEX
  5
180
100
AcDbEntity
  8
LAYER_1
 62
     7
100
AcDbVertex
100
AcDb2dVertex
 10
81.277037
 20
188.968138
 30
0.0
  0
SEQEND
  5
181
100
AcDbEntity
  8
LAYER_1
 62
     7
  0
SPLINE
  5
17C
100
AcDbEntity
  8
LAYER_1
 62
     7
100
AcDbSpline
210
0.0
220
0.0
230
1.0
 70
     8
 71
     3
 72
    17
 73
    13
 74
     0
 42
0.00000001
 43
0.00000001
 40
0.0
 40
0.0
 40
0.0
 40
0.0
 40
1.0
 40
1.0
 40
1.0
 40
2.0
 40
2.0
 40
2.0
 40
3.0
 40
3.0
 40
3.0
 40
4.0
 40
4.0
 40
4.0
 40
4.0
 10
71.884501139322907
 20
175.75413004557291
 30
0.0
 10
71.958398437499994
 20
175.82096489800347
 30
0.0
 10
72.00094536675347
 20
175.91553276909721
 30
0.0
 10
72.001806640624991
 20
176.01509602864581
 30
0.0
 10
72.000600857204859
 20
176.20716010199652
 30
0.0
 10
71.845399305555546
 20
176.36253390842012
 30
0.0
 10
71.653335232204853
 20
176.36425645616319
 30
0.0
 10
71.46127115885416
 20
176.36253390842012
 30
0.0
 10
71.306069607204861
 20
176.20716010199652
 30
0.0
 10
71.304863823784714
 20
176.01509602864581
 30
0.0
 10
71.394264051649301
 20
175.78427463107639
 30
0.0
 10
71.652473958333331
 20
175.66800265842014
 30
0.0
 10
71.884501139322907
 20
175.75413004557291
 30
0.0
  0
POLYLINE
  5
177
100
AcDbEntity
  8
LAYER_1
 62
     7
100
AcDb2dPolyline
 66
     1
 10
0.0
 20
0.0
 30
0.0
  0
VERTEX
  5
178
100
AcDbEntity
  8
LAYER_1
 62
     7
100
AcDbVertex
100
AcDb2dVertex
 10
77.451603
 20
173.456079
 30
0.0
  0
VERTEX
  5
179
100
AcDbEntity
  8
LAYER_1
 62
     7
100
AcDbVertex
100
AcDb2dVertex
 10
82.752227
 20
182.811925
 30
0.0
  0
VERTEX
  5
17A
100
AcDbEntity
  8
LAYER_1
 62
     7
100
AcDbVertex
100
AcDb2dVertex
 10
84.932973
 20
182.811925
 30
0.0
  0
SEQEND
  5
17B
100
AcDbEntity
  8
LAYER_1
 62
     7
  0
SPLINE
  5
176
100
AcDbEntity
  8
LAYER_1
 62
     7
100
AcDbSpline
210
0.0
220
0.0
230
1.0
 70
     8
 71
     3
 72
    17
 73
    13
 74
     0
 42
0.00000001
 43
0.00000001
 40
0.0
 40
0.0
 40
0.0
 40
0.0
 40
1.0
 40
1.0
 40
1.0
 40
2.0
 40
2.0
 40
2.0
 40
3.0
 40
3.0
 40
3.0
 40
4.0
 40
4.0
 40
4.0
 40
4.0
 10
77.636604817708331
 20
173.17995469835068
 30
0.0
 10
77.710329861111106
 20
173.24627278645832
 30
0.0
 10
77.752876790364581
 20
173.34032389322914
 30
0.0
 10
77.753910319010416
 20
173.43954264322915
 30
0.0
 10
77.75253228081597
 20
173.63160671657985
 30
0.0
 10
77.597330729166657
 20
173.78715277777775
 30
0.0
 10
77.405438910590277
 20
173.78870307074652
 30
0.0
 10
77.21337483723957
 20
173.78715277777775
 30
0.0
 10
77.058173285590271
 20
173.63160671657985
 30
0.0
 10
77.056795247395826
 20
173.43954264322915
 30
0.0
 10
77.146712239583323
 20
173.20906575520831
 30
0.0
 10
77.404922146267353
 20
173.09348280164929
 30
0.0
 10
77.636604817708331
 20
173.17995469835068
 30
0.0
  0
POLYLINE
  5
171
100
AcDbEntity
  8
LAYER_1
 62
     7
100
AcDb2dPolyline
 66
     1
 10
0.0
 20
0.0
 30
0.0
  0
VERTEX
  5
172
100
AcDbEntity
  8
LAYER_1
 62
     7
100
AcDbVertex
100
AcDb2dVertex
 10
75.844466
 20
129.356445
 30
0.0
  0
VERTEX
  5
173
100
AcDbEntity
  8
LAYER_1
 62
     7
100
AcDbVertex
100
AcDb2dVertex
 10
88.231651
 20
151.024546
 30
0.0
  0
VERTEX
  5
174
100
AcDbEntity
  8
LAYER_1
 62
     7
100
AcDbVertex
100
AcDb2dVertex
 10
90.412569
 20
151.024546
 30
0.0
  0
SEQEND
  5
175
100
AcDbEntity
  8
LAYER_1
 62
     7
  0
SPLINE
  5
170
100
AcDbEntity
  8
LAYER_1
 62
     7
100
AcDbSpline
210
0.0
220
0.0
230
1.0
 70
     8
 71
     3
 72
    17
 73
    13
 74
     0
 42
0.00000001
 43
0.00000001
 40
0.0
 40
0.0
 40
0.0
 40
0.0
 40
1.0
 40
1.0
 40
1.0
 40
2.0
 40
2.0
 40
2.0
 40
3.0
 40
3.0
 40
3.0
 40
4.0
 40
4.0
 40
4.0
 40
4.0
 10
76.02929551866319
 20
129.08014865451386
 30
0.0
 10
76.103365071614576
 20
129.14663899739583
 30
0.0
 10
76.145912000868051
 20
129.24137912326387
 30
0.0
 10
76.146601019965274
 20
129.3409423828125
 30
0.0
 10
76.14556749131944
 20
129.53317871093748
 30
0.0
 10
75.990365939670127
 20
129.6885525173611
 30
0.0
 10
75.798129611545136
 20
129.68993055555555
 30
0.0
 10
75.606065538194443
 20
129.6885525173611
 30
0.0
 10
75.45086398654513
 20
129.53317871093748
 30
0.0
 10
75.449830457899296
 20
129.3409423828125
 30
0.0
 10
75.53905843098957
 20
129.11012098524304
 30
0.0
 10
75.7972683376736
 20
128.99402126736109
 30
0.0
 10
76.02929551866319
 20
129.08014865451386
 30
0.0
  0
LINE
  5
16F
100
AcDbEntity
  8
LAYER_1
 62
     7
100
AcDbLine
 10
86.782817
 20
170.03286
 30
0.0
 11
86.782817
 21
159.73323
 31
0.0
  0
POLYLINE
  5
16A
100
AcDbEntity
  8
LAYER_1
 62
     7
100
AcDb2dPolyline
 66
     1
 10
0.0
 20
0.0
 30
0.0
  0
VERTEX
  5
16B
100
AcDbEntity
  8
LAYER_1
 62
     7
100
AcDbVertex
100
AcDb2dVertex
 10
38.26502
 20
133.521566
 30
0.0
  0
VERTEX
  5
16C
100
AcDbEntity
  8
LAYER_1
 62
     7
100
AcDbVertex
100
AcDb2dVertex
 10
40.117792
 20
134.018693
 30
0.0
  0
VERTEX
  5
16D
100
AcDbEntity
  8
LAYER_1
 62
     7
100
AcDbVertex
100
AcDb2dVertex
 10
38.26502
 20
134.515131
 30
0.0
  0
SEQEND
  5
16E
100
AcDbEntity
  8
LAYER_1
 62
     7
  0
POLYLINE
  5
165
100
AcDbEntity
  8
LAYER_1
 62
     7
100
AcDb2dPolyline
 66
     1
 10
0.0
 20
0.0
 30
0.0
  0
VERTEX
  5
166
100
AcDbEntity
  8
LAYER_1
 62
     7
100
AcDbVertex
100
AcDb2dVertex
 10
63.711529
 20
133.484359
 30
0.0
  0
VERTEX
  5
167
100
AcDbEntity
  8
LAYER_1
 62
     7
100
AcDbVertex
100
AcDb2dVertex
 10
65.564473
 20
133.980452
 30
0.0
  0
VERTEX
  5
168
100
AcDbEntity
  8
LAYER_1
 62
     7
100
AcDbVertex
100
AcDb2dVertex
 10
63.711529
 20
134.476546
 30
0.0
  0
SEQEND
  5
169
100
AcDbEntity
  8
LAYER_1
 62
     7
  0
POLYLINE
  5
160
100
AcDbEntity
  8
LAYER_1
 62
     7
100
AcDb2dPolyline
 66
     1
 10
0.0
 20
0.0
 30
0.0
  0
VERTEX
  5
161
100
AcDbEntity
  8
LAYER_1
 62
     7
100
AcDbVertex
100
AcDb2dVertex
 10
139.718259
 20
72.776609
 30
0.0
  0
VERTEX
  5
162
100
AcDbEntity
  8
LAYER_1
 62
     7
100
AcDbVertex
100
AcDb2dVertex
 10
141.571031
 20
73.272702
 30
0.0
  0
VERTEX
  5
163
100
AcDbEntity
  8
LAYER_1
 62
     7
100
AcDbVertex
100
AcDb2dVertex
 10
139.718259
 20
73.768796
 30
0.0
  0
SEQEND
  5
164
100
AcDbEntity
  8
LAYER_1
 62
     7
  0
POLYLINE
  5
15B
100
AcDbEntity
  8
LAYER_1
 62
     7
100
AcDb2dPolyline
 66
     1
 10
0.0
 20
0.0
 30
0.0
  0
VERTEX
  5
15C
100
AcDbEntity
  8
LAYER_1
 62
     7
100
AcDbVertex
100
AcDb2dVertex
 10
138.260295
 20
106.735259
 30
0.0
  0
VERTEX
  5
15D
100
AcDbEntity
  8
LAYER_1
 62
     7
100
AcDbVertex
100
AcDb2dVertex
 10
140.113067
 20
107.231698
 30
0.0
  0
VERTEX
  5
15E
100
AcDbEntity
  8
LAYER_1
 62
     7
100
AcDbVertex
100
AcDb2dVertex
 10
138.260295
 20
107.729169
 30
0.0
  0
SEQEND
  5
15F
100
AcDbEntity
  8
LAYER_1
 62
     7
  0
POLYLINE
  5
156
100
AcDbEntity
  8
LAYER_1
 62
     7
100
AcDb2dPolyline
 66
     1
 10
0.0
 20
0.0
 30
0.0
  0
VERTEX
  5
157
100
AcDbEntity
  8
LAYER_1
 62
     7
100
AcDbVertex
100
AcDb2dVertex
 10
145.26693
 20
107.729169
 30
0.0
  0
VERTEX
  5
158
100
AcDbEntity
  8
LAYER_1
 62
     7
100
AcDbVertex
100
AcDb2dVertex
 10
143.414157
 20
107.231698
 30
0.0
  0
VERTEX
  5
159
100
AcDbEntity
  8
LAYER_1
 62
     7
100
AcDbVertex
100
AcDb2dVertex
 10
145.26693
 20
106.735259
 30
0.0
  0
SEQEND
  5
15A
100
AcDbEntity
  8
LAYER_1
 62
     7
  0
POLYLINE
  5
151
100
AcDbEntity
  8
LAYER_1
 62
     7
100
AcDb2dPolyline
 66
     1
 10
0.0
 20
0.0
 30
0.0
  0
VERTEX
  5
152
100
AcDbEntity
  8
LAYER_1
 62
     7
100
AcDbVertex
100
AcDb2dVertex
 10
65.759121
 20
83.445725
 30
0.0
  0
VERTEX
  5
153
100
AcDbEntity
  8
LAYER_1
 62
     7
100
AcDbVertex
100
AcDb2dVertex
 10
67.611894
 20
83.941819
 30
0.0
  0
VERTEX
  5
154
100
AcDbEntity
  8
LAYER_1
 62
     7
100
AcDbVertex
100
AcDb2dVertex
 10
65.759121
 20
84.437912
 30
0.0
  0
SEQEND
  5
155
100
AcDbEntity
  8
LAYER_1
 62
     7
  0
POLYLINE
  5
14C
100
AcDbEntity
  8
LAYER_1
 62
     7
100
AcDb2dPolyline
 66
     1
 10
0.0
 20
0.0
 30
0.0
  0
VERTEX
  5
14D
100
AcDbEntity
  8
LAYER_1
 62
     7
100
AcDbVertex
100
AcDb2dVertex
 10
71.652474
 20
73.824951
 30
0.0
  0
VERTEX
  5
14E
100
AcDbEntity
  8
LAYER_1
 62
     7
100
AcDbVertex
100
AcDb2dVertex
 10
69.799702
 20
73.328857
 30
0.0
  0
VERTEX
  5
14F
100
AcDbEntity
  8
LAYER_1
 62
     7
100
AcDbVertex
100
AcDb2dVertex
 10
71.652474
 20
72.832764
 30
0.0
  0
SEQEND
  5
150
100
AcDbEntity
  8
LAYER_1
 62
     7
  0
POLYLINE
  5
147
100
AcDbEntity
  8
LAYER_1
 62
     7
100
AcDb2dPolyline
 66
     1
 10
0.0
 20
0.0
 30
0.0
  0
VERTEX
  5
148
100
AcDbEntity
  8
LAYER_1
 62
     7
100
AcDbVertex
100
AcDb2dVertex
 10
77.713775
 20
84.437912
 30
0.0
  0
VERTEX
  5
149
100
AcDbEntity
  8
LAYER_1
 62
     7
100
AcDbVertex
100
AcDb2dVertex
 10
75.861003
 20
83.941819
 30
0.0
  0
VERTEX
  5
14A
100
AcDbEntity
  8
LAYER_1
 62
     7
100
AcDbVertex
100
AcDb2dVertex
 10
77.713775
 20
83.445725
 30
0.0
  0
SEQEND
  5
14B
100
AcDbEntity
  8
LAYER_1
 62
     7
  0
POLYLINE
  5
142
100
AcDbEntity
  8
LAYER_1
 62
     7
100
AcDb2dPolyline
 66
     1
 10
0.0
 20
0.0
 30
0.0
  0
VERTEX
  5
143
100
AcDbEntity
  8
LAYER_1
 62
     7
100
AcDbVertex
100
AcDb2dVertex
 10
87.279083
 20
168.179743
 30
0.0
  0
VERTEX
  5
144
100
AcDbEntity
  8
LAYER_1
 62
     7
100
AcDbVertex
100
AcDb2dVertex
 10
86.782817
 20
170.03286
 30
0.0
  0
VERTEX
  5
145
100
AcDbEntity
  8
LAYER_1
 62
     7
100
AcDbVertex
100
AcDb2dVertex
 10
86.286206
 20
168.179743
 30
0.0
  0
SEQEND
  5
146
100
AcDbEntity
  8
LAYER_1
 62
     7
  0
POLYLINE
  5
13D
100
AcDbEntity
  8
LAYER_1
 62
     7
100
AcDb2dPolyline
 66
     1
 10
0.0
 20
0.0
 30
0.0
  0
VERTEX
  5
13E
100
AcDbEntity
  8
LAYER_1
 62
     7
100
AcDbVertex
100
AcDb2dVertex
 10
86.269325
 20
173.612142
 30
0.0
  0
VERTEX
  5
13F
100
AcDbEntity
  8
LAYER_1
 62
     7
100
AcDbVertex
100
AcDb2dVertex
 10
86.765763
 20
171.760403
 30
0.0
  0
VERTEX
  5
140
100
AcDbEntity
  8
LAYER_1
 62
     7
100
AcDbVertex
100
AcDb2dVertex
 10
87.262202
 20
173.612142
 30
0.0
  0
SEQEND
  5
141
100
AcDbEntity
  8
LAYER_1
 62
     7
  0
POLYLINE
  5
138
100
AcDbEntity
  8
LAYER_1
 62
     7
100
AcDb2dPolyline
 66
     1
 10
0.0
 20
0.0
 30
0.0
  0
VERTEX
  5
139
100
AcDbEntity
  8
LAYER_1
 62
     7
100
AcDbVertex
100
AcDb2dVertex
 10
88.55928
 20
103.641908
 30
0.0
  0
VERTEX
  5
13A
100
AcDbEntity
  8
LAYER_1
 62
     7
100
AcDbVertex
100
AcDb2dVertex
 10
88.062842
 20
101.788791
 30
0.0
  0
VERTEX
  5
13B
100
AcDbEntity
  8
LAYER_1
 62
     7
100
AcDbVertex
100
AcDb2dVertex
 10
87.566404
 20
103.641908
 30
0.0
  0
SEQEND
  5
13C
100
AcDbEntity
  8
LAYER_1
 62
     7
  0
POLYLINE
  5
133
100
AcDbEntity
  8
LAYER_1
 62
     7
100
AcDb2dPolyline
 66
     1
 10
0.0
 20
0.0
 30
0.0
  0
VERTEX
  5
134
100
AcDbEntity
  8
LAYER_1
 62
     7
100
AcDbVertex
100
AcDb2dVertex
 10
88.604583
 20
96.517451
 30
0.0
  0
VERTEX
  5
135
100
AcDbEntity
  8
LAYER_1
 62
     7
100
AcDbVertex
100
AcDb2dVertex
 10
88.108145
 20
98.370567
 30
0.0
  0
VERTEX
  5
136
100
AcDbEntity
  8
LAYER_1
 62
     7
100
AcDbVertex
100
AcDb2dVertex
 10
87.611707
 20
96.517451
 30
0.0
  0
SEQEND
  5
137
100
AcDbEntity
  8
LAYER_1
 62
     7
  0
POLYLINE
  5
12E
100
AcDbEntity
  8
LAYER_1
 62
     7
100
AcDb2dPolyline
 66
     1
 10
0.0
 20
0.0
 30
0.0
  0
VERTEX
  5
12F
100
AcDbEntity
  8
LAYER_1
 62
     7
100
AcDbVertex
100
AcDb2dVertex
 10
28.219294
 20
171.616054
 30
0.0
  0
VERTEX
  5
130
100
AcDbEntity
  8
LAYER_1
 62
     7
100
AcDbVertex
100
AcDb2dVertex
 10
27.722856
 20
173.468998
 30
0.0
  0
VERTEX
  5
131
100
AcDbEntity
  8
LAYER_1
 62
     7
100
AcDbVertex
100
AcDb2dVertex
 10
27.226417
 20
171.616054
 30
0.0
  0
SEQEND
  5
132
100
AcDbEntity
  8
LAYER_1
 62
     7
  0
POLYLINE
  5
129
100
AcDbEntity
  8
LAYER_1
 62
     7
100
AcDb2dPolyline
 66
     1
 10
0.0
 20
0.0
 30
0.0
  0
VERTEX
  5
12A
100
AcDbEntity
  8
LAYER_1
 62
     7
100
AcDbVertex
100
AcDb2dVertex
 10
27.226417
 20
91.607156
 30
0.0
  0
VERTEX
  5
12B
100
AcDbEntity
  8
LAYER_1
 62
     7
100
AcDbVertex
100
AcDb2dVertex
 10
27.722856
 20
89.754039
 30
0.0
  0
VERTEX
  5
12C
100
AcDbEntity
  8
LAYER_1
 62
     7
100
AcDbVertex
100
AcDb2dVertex
 10
28.219294
 20
91.607156
 30
0.0
  0
SEQEND
  5
12D
100
AcDbEntity
  8
LAYER_1
 62
     7
  0
POLYLINE
  5
124
100
AcDbEntity
  8
LAYER_1
 62
     7
100
AcDb2dPolyline
 66
     1
 10
0.0
 20
0.0
 30
0.0
  0
VERTEX
  5
125
100
AcDbEntity
  8
LAYER_1
 62
     7
100
AcDbVertex
100
AcDb2dVertex
 10
160.151809
 20
169.881793
 30
0.0
  0
VERTEX
  5
126
100
AcDbEntity
  8
LAYER_1
 62
     7
100
AcDbVertex
100
AcDb2dVertex
 10
159.655371
 20
171.733531
 30
0.0
  0
VERTEX
  5
127
100
AcDbEntity
  8
LAYER_1
 62
     7
100
AcDbVertex
100
AcDb2dVertex
 10
159.159277
 20
169.881793
 30
0.0
  0
SEQEND
  5
128
100
AcDbEntity
  8
LAYER_1
 62
     7
  0
POLYLINE
  5
11F
100
AcDbEntity
  8
LAYER_1
 62
     7
100
AcDb2dPolyline
 66
     1
 10
0.0
 20
0.0
 30
0.0
  0
VERTEX
  5
120
100
AcDbEntity
  8
LAYER_1
 62
     7
100
AcDbVertex
100
AcDb2dVertex
 10
118.444105
 20
100.181654
 30
0.0
  0
VERTEX
  5
121
100
AcDbEntity
  8
LAYER_1
 62
     7
100
AcDbVertex
100
AcDb2dVertex
 10
117.947667
 20
102.034427
 30
0.0
  0
VERTEX
  5
122
100
AcDbEntity
  8
LAYER_1
 62
     7
100
AcDbVertex
100
AcDb2dVertex
 10
117.451229
 20
100.181654
 30
0.0
  0
SEQEND
  5
123
100
AcDbEntity
  8
LAYER_1
 62
     7
  0
POLYLINE
  5
11A
100
AcDbEntity
  8
LAYER_1
 62
     7
100
AcDb2dPolyline
 66
     1
 10
0.0
 20
0.0
 30
0.0
  0
VERTEX
  5
11B
100
AcDbEntity
  8
LAYER_1
 62
     7
100
AcDbVertex
100
AcDb2dVertex
 10
159.159277
 20
103.840001
 30
0.0
  0
VERTEX
  5
11C
100
AcDbEntity
  8
LAYER_1
 62
     7
100
AcDbVertex
100
AcDb2dVertex
 10
159.655371
 20
101.987229
 30
0.0
  0
VERTEX
  5
11D
100
AcDbEntity
  8
LAYER_1
 62
     7
100
AcDbVertex
100
AcDb2dVertex
 10
160.151809
 20
103.840001
 30
0.0
  0
SEQEND
  5
11E
100
AcDbEntity
  8
LAYER_1
 62
     7
  0
POLYLINE
  5
115
100
AcDbEntity
  8
LAYER_1
 62
     7
100
AcDb2dPolyline
 66
     1
 10
0.0
 20
0.0
 30
0.0
  0
VERTEX
  5
116
100
AcDbEntity
  8
LAYER_1
 62
     7
100
AcDbVertex
100
AcDb2dVertex
 10
117.451229
 20
93.398606
 30
0.0
  0
VERTEX
  5
117
100
AcDbEntity
  8
LAYER_1
 62
     7
100
AcDbVertex
100
AcDb2dVertex
 10
117.947667
 20
91.545489
 30
0.0
  0
VERTEX
  5
118
100
AcDbEntity
  8
LAYER_1
 62
     7
100
AcDbVertex
100
AcDb2dVertex
 10
118.444105
 20
93.398606
 30
0.0
  0
SEQEND
  5
119
100
AcDbEntity
  8
LAYER_1
 62
     7
  0
POLYLINE
  5
110
100
AcDbEntity
  8
LAYER_1
 62
     7
100
AcDb2dPolyline
 66
     1
 10
0.0
 20
0.0
 30
0.0
  0
VERTEX
  5
111
100
AcDbEntity
  8
LAYER_1
 62
     7
100
AcDbVertex
100
AcDb2dVertex
 10
44.57609
 20
134.515131
 30
0.0
  0
VERTEX
  5
112
100
AcDbEntity
  8
LAYER_1
 62
     7
100
AcDbVertex
100
AcDb2dVertex
 10
42.723146
 20
134.018693
 30
0.0
  0
VERTEX
  5
113
100
AcDbEntity
  8
LAYER_1
 62
     7
100
AcDbVertex
100
AcDb2dVertex
 10
44.57609
 20
133.521566
 30
0.0
  0
SEQEND
  5
114
100
AcDbEntity
  8
LAYER_1
 62
     7
  0
LINE
  5
10F
100
AcDbEntity
  8
LAYER_1
 62
     7
100
AcDbLine
 10
75.861003
 20
83.941819
 30
0.0
 11
80.922881
 21
83.941819
 31
0.0
  0
LINE
  5
10E
100
AcDbEntity
  8
LAYER_1
 62
     7
100
AcDbLine
 10
177.595361
 20
122.235777
 30
0.0
 11
179.851554
 21
122.235777
 31
0.0
  0
LINE
  5
10D
100
AcDbEntity
  8
LAYER_1
 62
     7
100
AcDbLine
 10
177.595361
 20
117.248313
 30
0.0
 11
179.851554
 21
117.248313
 31
0.0
  0
POLYLINE
  5
108
100
AcDbEntity
  8
LAYER_1
 62
     7
100
AcDb2dPolyline
 66
     1
 10
0.0
 20
0.0
 30
0.0
  0
VERTEX
  5
109
100
AcDbEntity
  8
LAYER_1
 62
     7
100
AcDbVertex
100
AcDb2dVertex
 10
177.565734
 20
90.571216
 30
0.0
  0
VERTEX
  5
10A
100
AcDbEntity
  8
LAYER_1
 62
     7
100
AcDbVertex
100
AcDb2dVertex
 10
177.565734
 20
127.499539
 30
0.0
  0
VERTEX
  5
10B
100
AcDbEntity
  8
LAYER_1
 62
     7
100
AcDbVertex
100
AcDb2dVertex
 10
179.821927
 20
127.499539
 30
0.0
  0
SEQEND
  5
10C
100
AcDbEntity
  8
LAYER_1
 62
     7
  0
SPLINE
  5
107
100
AcDbEntity
  8
LAYER_1
 62
     7
100
AcDbSpline
210
0.0
220
0.0
230
1.0
 70
     8
 71
     3
 72
    17
 73
    13
 74
     0
 42
0.00000001
 43
0.00000001
 40
0.0
 40
0.0
 40
0.0
 40
0.0
 40
1.0
 40
1.0
 40
1.0
 40
2.0
 40
2.0
 40
2.0
 40
3.0
 40
3.0
 40
3.0
 40
4.0
 40
4.0
 40
4.0
 40
4.0
 10
177.56573350694444
 20
96.649397786458323
 30
0.0
 10
177.38968912760416
 20
96.650775824652769
 30
0.0
 10
177.24706217447914
 20
96.79305826822916
 30
0.0
 10
177.24602864583332
 20
96.969102647569429
 30
0.0
 10
177.33250054253472
 20
97.180976019965271
 30
0.0
 10
177.57296820746527
 20
97.283984374999989
 30
0.0
 10
177.78621961805553
 20
97.200613064236109
 30
0.0
 10
177.84857584635415
 20
97.139634874131929
 30
0.0
 10
177.88440483940971
 20
97.056263563368049
 30
0.0
 10
177.88543836805553
 20
96.969102647569429
 30
0.0
 10
177.88406032986109
 20
96.79305826822916
 30
0.0
 10
177.74177788628469
 20
96.650775824652769
 30
0.0
 10
177.56573350694444
 20
96.649397786458323
 30
0.0
  0
SPLINE
  5
106
100
AcDbEntity
  8
LAYER_1
 62
     7
100
AcDbSpline
210
0.0
220
0.0
230
1.0
 70
     8
 71
     3
 72
    20
 73
    16
 74
     0
 42
0.00000001
 43
0.00000001
 40
0.0
 40
0.0
 40
0.0
 40
0.0
 40
1.0
 40
1.0
 40
1.0
 40
2.0
 40
2.0
 40
2.0
 40
3.0
 40
3.0
 40
3.0
 40
4.0
 40
4.0
 40
4.0
 40
5.0
 40
5.0
 40
5.0
 40
5.0
 10
177.56573350694444
 20
91.874495442708323
 30
0.0
 10
177.38968912760416
 20
91.875528971354157
 30
0.0
 10
177.24706217447914
 20
92.017811414930549
 30
0.0
 10
177.24602864583332
 20
92.193855794270831
 30
0.0
 10
177.28668077256944
 20
92.296175130208326
 30
0.0
 10
177.3669514973958
 20
92.378168402777774
 30
0.0
 10
177.46823730468748
 20
92.421576605902771
 30
0.0
 10
177.56952311197915
 20
92.464984809027769
 30
0.0
 10
177.68390028211803
 20
92.466362847222214
 30
0.0
 10
177.78621961805553
 20
92.425366210937497
 30
0.0
 10
177.84857584635415
 20
92.364732530381943
 30
0.0
 10
177.88440483940971
 20
92.281361219618049
 30
0.0
 10
177.88543836805553
 20
92.193855794270831
 30
0.0
 10
177.88406032986109
 20
92.017811414930549
 30
0.0
 10
177.74177788628469
 20
91.875528971354157
 30
0.0
 10
177.56573350694444
 20
91.874495442708323
 30
0.0
  0
SPLINE
  5
105
100
AcDbEntity
  8
LAYER_1
 62
     7
100
AcDbSpline
210
0.0
220
0.0
230
1.0
 70
     8
 71
     3
 72
    20
 73
    16
 74
     0
 42
0.00000001
 43
0.00000001
 40
0.0
 40
0.0
 40
0.0
 40
0.0
 40
1.0
 40
1.0
 40
1.0
 40
2.0
 40
2.0
 40
2.0
 40
3.0
 40
3.0
 40
3.0
 40
4.0
 40
4.0
 40
4.0
 40
5.0
 40
5.0
 40
5.0
 40
5.0
 10
177.56573350694444
 20
90.258056640624986
 30
0.0
 10
177.38968912760416
 20
90.25909016927082
 30
0.0
 10
177.24706217447914
 20
90.401372612847211
 30
0.0
 10
177.24602864583332
 20
90.577761501736106
 30
0.0
 10
177.28668077256944
 20
90.679736328124989
 30
0.0
 10
177.3669514973958
 20
90.761729600694437
 30
0.0
 10
177.46823730468748
 20
90.805137803819434
 30
0.0
 10
177.56952311197915
 20
90.848546006944431
 30
0.0
 10
177.68390028211803
 20
90.849924045138877
 30
0.0
 10
177.78621961805553
 20
90.80892740885416
 30
0.0
 10
177.84857584635415
 20
90.748293728298606
 30
0.0
 10
177.88440483940971
 20
90.664922417534711
 30
0.0
 10
177.88543836805553
 20
90.577761501736106
 30
0.0
 10
177.88406032986109
 20
90.401717122395823
 30
0.0
 10
177.74177788628469
 20
90.25909016927082
 30
0.0
 10
177.56573350694444
 20
90.258056640624986
 30
0.0
  0
MTEXT
  5
104
100
AcDbEntity
  8
LAYER_1
 62
     7
100
AcDbMText
 10
180.271167
 20
118.327172
 30
0.0
 40
2.531312
 41
0.0
 71
     1
 72
     2
  1
\W0.50;\fMS Gothic|b0|i0|c128;防水層
  7
KANJISTD
210
0.0
220
0.0
230
1.0
 11
1.000001
 21
0.0
 31
0.0
 73
     1
 44
1.0
  0
MTEXT
  5
103
100
AcDbEntity
  8
LAYER_1
 62
     7
100
AcDbMText
 10
180.233615
 20
128.948746
 30
0.0
 40
2.531312
 41
0.0
 71
     1
 72
     2
  1
\W0.50;\fMS Gothic|b0|i0|c128;押さえコンクリート
  7
KANJISTD
210
0.0
220
0.0
230
1.0
 11
1.000001
 21
0.0
 31
0.0
 73
     1
 44
1.0
  0
MTEXT
  5
102
100
AcDbEntity
  8
LAYER_1
 62
     7
100
AcDbMText
 10
77.930127
 20
194.842226
 30
0.0
 40
2.531312
 41
0.0
 71
     1
 72
     2
  1
\W0.50;\fMS Gothic|b0|i0|c128;金属笠木
  7
KANJISTD
210
0.0
220
0.0
230
1.0
 11
1.000001
 21
0.0
 31
0.0
 73
     1
 44
1.0
  0
MTEXT
  5
101
100
AcDbEntity
  8
LAYER_1
 62
     7
100
AcDbMText
 10
81.877517
 20
190.25646
 30
0.0
 40
2.531312
 41
0.0
 71
     1
 72
     2
  1
\W0.50;\fMS Gothic|b0|i0|c128;金属笠木取付金具
  7
KANJISTD
210
0.0
220
0.0
230
1.0
 11
1.000001
 21
0.0
 31
0.0
 73
     1
 44
1.0
  0
MTEXT
  5
100
100
AcDbEntity
  8
LAYER_1
 62
     7
100
AcDbMText
 10
84.584501
 20
183.969849
 30
0.0
 40
2.531312
 41
0.0
 71
     1
 72
     2
  1
\W0.50;\fMS Gothic|b0|i0|c128;上部ホルダー
  7
KANJISTD
210
0.0
220
0.0
230
1.0
 11
1.000001
 21
0.0
 31
0.0
 73
     1
 44
1.0
  0
MTEXT
  5
FF
100
AcDbEntity
  8
LAYER_1
 62
     7
100
AcDbMText
 10
83.708041
 20
160.825326
 30
0.0
 40
2.531312
 41
0.0
 71
     1
 72
     2
  1
\W0.50;\fMS Gothic|b0|i0|c128;10程度
  7
KANJISTD
210
0.0
220
0.0
230
1.0
 11
0.0
 21
1.0
 31
0.0
 73
     1
 44
1.0
  0
LINE
  5
FE
100
AcDbEntity
  8
LAYER_1
 62
     7
100
AcDbLine
 10
49.890667
 20
169.453395
 30
0.0
 11
49.890667
 21
175.729842
 31
0.0
  0
LINE
  5
FD
100
AcDbEntity
  8
LAYER_1
 62
     7
100
AcDbLine
 10
45.828038
 20
175.614776
 30
0.0
 11
54.089033
 21
175.614776
 31
0.0
  0
SPLINE
  5
FC
100
AcDbEntity
  8
LAYER_1
 62
     7
100
AcDbSpline
210
0.0
220
0.0
230
1.0
 70
     8
 71
     3
 72
    23
 73
    19
 74
     0
 42
0.00000001
 43
0.00000001
 40
0.0
 40
0.0
 40
0.0
 40
0.0
 40
1.0
 40
1.0
 40
1.0
 40
2.0
 40
2.0
 40
2.0
 40
3.0
 40
3.0
 40
3.0
 40
4.0
 40
4.0
 40
4.0
 40
5.0
 40
5.0
 40
5.0
 40
6.0
 40
6.0
 40
6.0
 40
6.0
 10
192.99045952690972
 20
89.665844726562497
 30
0.0
 10
192.99045952690972
 20
89.665844726562497
 30
0.0
 10
65.686257595486111
 20
89.665844726562497
 30
0.0
 10
65.686257595486111
 20
89.665844726562497
 30
0.0
 10
65.686257595486111
 20
89.665844726562497
 30
0.0
 10
65.687980143229154
 20
171.42795138888889
 30
0.0
 10
65.687980143229154
 20
171.42795138888889
 30
0.0
 10
65.64715576171875
 20
172.52710910373261
 30
0.0
 10
64.810686577690973
 20
173.43230794270832
 30
0.0
 10
63.718074544270827
 20
173.55977647569443
 30
0.0
 10
63.718074544270827
 20
173.55977647569443
 30
0.0
 10
42.634262424045133
 20
173.56993950737845
 30
0.0
 10
42.634262424045133
 20
173.56993950737845
 30
0.0
 10
42.634262424045133
 20
173.56993950737845
 30
0.0
 10
40.090576171874993
 20
171.06104871961804
 30
0.0
 10
40.090576171874993
 20
171.06104871961804
 30
0.0
 10
40.090576171874993
 20
171.06104871961804
 30
0.0
 10
40.09712185329861
 20
66.11276041666666
 30
0.0
 10
40.09712185329861
 20
66.11276041666666
 30
0.0
  0
LINE
  5
FB
100
AcDbEntity
  8
LAYER_1
 62
     7
100
AcDbLine
 10
44.722852
 20
173.40113
 30
0.0
 11
45.217051
 21
173.894812
 31
0.0
  0
LINE
  5
FA
100
AcDbEntity
  8
LAYER_1
 62
     7
100
AcDbLine
 10
44.124783
 20
173.576313
 30
0.0
 11
45.9481
 21
175.399974
 31
0.0
  0
LINE
  5
F9
100
AcDbEntity
  8
LAYER_1
 62
     7
100
AcDbLine
 10
43.380815
 20
173.605769
 30
0.0
 11
45.166408
 21
175.392223
 31
0.0
  0
LINE
  5
F8
100
AcDbEntity
  8
LAYER_1
 62
     7
100
AcDbLine
 10
42.711949
 20
173.711877
 30
0.0
 11
44.403663
 21
175.402558
 31
0.0
  0
SPLINE
  5
F7
100
AcDbEntity
  8
LAYER_1
 62
     7
100
AcDbSpline
210
0.0
220
0.0
230
1.0
 70
     8
 71
     3
 72
    14
 73
    10
 74
     0
 42
0.00000001
 43
0.00000001
 40
0.0
 40
0.0
 40
0.0
 40
0.0
 40
1.0
 40
1.0
 40
1.0
 40
2.0
 40
2.0
 40
2.0
 40
3.0
 40
3.0
 40
3.0
 40
3.0
 10
42.29492051866319
 20
173.35513780381942
 30
0.0
 10
42.404302300347219
 20
174.17300347222221
 30
0.0
 10
42.959996202256939
 20
174.86185031467014
 30
0.0
 10
43.736348470052079
 20
175.14159206814236
 30
0.0
 10
44.281190321180553
 20
175.31040174696179
 30
0.0
 10
44.847047254774303
 20
175.40204128689234
 30
0.0
 10
45.417210557725689
 20
175.41392686631943
 30
0.0
 10
45.866451009114577
 20
175.40927598741317
 30
0.0
 10
46.313968912760416
 20
175.35949435763888
 30
0.0
 10
46.753046332465274
 20
175.26561550564236
 30
0.0
  0
POLYLINE
  5
EB
100
AcDbEntity
  8
LAYER_1
  6
AI9-LType1
 62
     7
100
AcDb2dPolyline
 66
     1
 10
0.0
 20
0.0
 30
0.0
  0
VERTEX
  5
EC
100
AcDbEntity
  8
LAYER_1
  6
AI9-LType1
 62
     7
100
AcDbVertex
100
AcDb2dVertex
 10
80.591291
 20
168.026264
 30
0.0
  0
VERTEX
  5
ED
100
AcDbEntity
  8
LAYER_1
  6
AI9-LType1
 62
     7
100
AcDbVertex
100
AcDb2dVertex
 10
79.389814
 20
176.077797
 30
0.0
  0
VERTEX
  5
EE
100
AcDbEntity
  8
LAYER_1
  6
AI9-LType1
 62
     7
100
AcDbVertex
100
AcDb2dVertex
 10
56.389495
 20
176.077797
 30
0.0
  0
VERTEX
  5
EF
100
AcDbEntity
  8
LAYER_1
  6
AI9-LType1
 62
     7
100
AcDbVertex
100
AcDb2dVertex
 10
55.619516
 20
177.61741
 30
0.0
  0
VERTEX
  5
F0
100
AcDbEntity
  8
LAYER_1
  6
AI9-LType1
 62
     7
100
AcDbVertex
100
AcDb2dVertex
 10
52.333584
 20
177.823254
 30
0.0
  0
VERTEX
  5
F1
100
AcDbEntity
  8
LAYER_1
  6
AI9-LType1
 62
     7
100
AcDbVertex
100
AcDb2dVertex
 10
51.666097
 20
176.077797
 30
0.0
  0
VERTEX
  5
F2
100
AcDbEntity
  8
LAYER_1
  6
AI9-LType1
 62
     7
100
AcDbVertex
100
AcDb2dVertex
 10
44.273094
 20
176.077797
 30
0.0
  0
VERTEX
  5
F3
100
AcDbEntity
  8
LAYER_1
  6
AI9-LType1
 62
     7
100
AcDbVertex
100
AcDb2dVertex
 10
43.14362
 20
178.284897
 30
0.0
  0
VERTEX
  5
F4
100
AcDbEntity
  8
LAYER_1
  6
AI9-LType1
 62
     7
100
AcDbVertex
100
AcDb2dVertex
 10
39.658217
 20
178.513824
 30
0.0
  0
VERTEX
  5
F5
100
AcDbEntity
  8
LAYER_1
  6
AI9-LType1
 62
     7
100
AcDbVertex
100
AcDb2dVertex
 10
38.4247
 20
168.101712
 30
0.0
  0
SEQEND
  5
F6
100
AcDbEntity
  8
LAYER_1
  6
AI9-LType1
 62
     7
  0
POLYLINE
  5
E0
100
AcDbEntity
  8
LAYER_1
 62
     7
100
AcDb2dPolyline
 66
     1
 10
0.0
 20
0.0
 30
0.0
 70
     1
  0
VERTEX
  5
E1
100
AcDbEntity
  8
LAYER_1
 62
     7
100
AcDbVertex
100
AcDb2dVertex
 10
77.766313
 20
170.094183
 30
0.0
  0
VERTEX
  5
E2
100
AcDbEntity
  8
LAYER_1
 62
     7
100
AcDbVertex
100
AcDb2dVertex
 10
77.764935
 20
175.458713
 30
0.0
  0
VERTEX
  5
E3
100
AcDbEntity
  8
LAYER_1
 62
     7
100
AcDbVertex
100
AcDb2dVertex
 10
73.691454
 20
175.458713
 30
0.0
  0
VERTEX
  5
E4
100
AcDbEntity
  8
LAYER_1
 62
     7
100
AcDbVertex
100
AcDb2dVertex
 10
73.691454
 20
170.094183
 30
0.0
  0
VERTEX
  5
E5
100
AcDbEntity
  8
LAYER_1
 62
     7
100
AcDbVertex
100
AcDb2dVertex
 10
74.059045
 20
170.094183
 30
0.0
  0
VERTEX
  5
E6
100
AcDbEntity
  8
LAYER_1
 62
     7
100
AcDbVertex
100
AcDb2dVertex
 10
74.059045
 20
175.09181
 30
0.0
  0
VERTEX
  5
E7
100
AcDbEntity
  8
LAYER_1
 62
     7
100
AcDbVertex
100
AcDb2dVertex
 10
77.398721
 20
175.09181
 30
0.0
  0
VERTEX
  5
E8
100
AcDbEntity
  8
LAYER_1
 62
     7
100
AcDbVertex
100
AcDb2dVertex
 10
77.398721
 20
170.094183
 30
0.0
  0
SEQEND
  5
E9
100
AcDbEntity
  8
LAYER_1
 62
     7
  0
POLYLINE
  5
CD
100
AcDbEntity
  8
LAYER_1
 62
     7
100
AcDb2dPolyline
 66
     1
 10
0.0
 20
0.0
 30
0.0
  0
VERTEX
  5
CE
100
AcDbEntity
  8
LAYER_1
 62
     7
100
AcDbVertex
100
AcDb2dVertex
 10
81.021067
 20
167.824209
 30
0.0
  0
VERTEX
  5
CF
100
AcDbEntity
  8
LAYER_1
 62
     7
100
AcDbVertex
100
AcDb2dVertex
 10
81.021067
 20
176.751657
 30
0.0
  0
VERTEX
  5
D0
100
AcDbEntity
  8
LAYER_1
 62
     7
100
AcDbVertex
100
AcDb2dVertex
 10
42.070989
 20
178.805451
 30
0.0
  0
VERTEX
  5
D1
100
AcDbEntity
  8
LAYER_1
 62
     7
100
AcDbVertex
100
AcDb2dVertex
 10
41.740949
 20
180.640481
 30
0.0
  0
VERTEX
  5
D2
100
AcDbEntity
  8
LAYER_1
 62
     7
100
AcDbVertex
100
AcDb2dVertex
 10
37.993202
 20
181.056132
 30
0.0
  0
VERTEX
  5
D3
100
AcDbEntity
  8
LAYER_1
 62
     7
100
AcDbVertex
100
AcDb2dVertex
 10
37.991996
 20
167.819214
 30
0.0
  0
VERTEX
  5
D4
100
AcDbEntity
  8
LAYER_1
 62
     7
100
AcDbVertex
100
AcDb2dVertex
 10
38.691695
 20
167.819214
 30
0.0
  0
VERTEX
  5
D5
100
AcDbEntity
  8
LAYER_1
 62
     7
100
AcDbVertex
100
AcDb2dVertex
 10
38.691695
 20
167.470053
 30
0.0
  0
VERTEX
  5
D6
100
AcDbEntity
  8
LAYER_1
 62
     7
100
AcDbVertex
100
AcDb2dVertex
 10
37.643869
 20
167.470053
 30
0.0
  0
VERTEX
  5
D7
100
AcDbEntity
  8
LAYER_1
 62
     7
100
AcDbVertex
100
AcDb2dVertex
 10
37.643869
 20
181.441121
 30
0.0
  0
VERTEX
  5
D8
100
AcDbEntity
  8
LAYER_1
 62
     7
100
AcDbVertex
100
AcDb2dVertex
 10
42.018107
 20
180.957775
 30
0.0
  0
VERTEX
  5
D9
100
AcDbEntity
  8
LAYER_1
 62
     7
100
AcDbVertex
100
AcDb2dVertex
 10
42.356932
 20
179.140487
 30
0.0
  0
VERTEX
  5
DA
100
AcDbEntity
  8
LAYER_1
 62
     7
100
AcDbVertex
100
AcDb2dVertex
 10
81.370399
 20
177.075152
 30
0.0
  0
VERTEX
  5
DB
100
AcDbEntity
  8
LAYER_1
 62
     7
100
AcDbVertex
100
AcDb2dVertex
 10
81.370399
 20
167.470053
 30
0.0
  0
VERTEX
  5
DC
100
AcDbEntity
  8
LAYER_1
 62
     7
100
AcDbVertex
100
AcDb2dVertex
 10
80.291912
 20
167.470053
 30
0.0
  0
VERTEX
  5
DD
100
AcDbEntity
  8
LAYER_1
 62
     7
100
AcDbVertex
100
AcDb2dVertex
 10
80.291912
 20
167.819214
 30
0.0
  0
VERTEX
  5
DE
100
AcDbEntity
  8
LAYER_1
 62
     7
100
AcDbVertex
100
AcDb2dVertex
 10
81.021067
 20
167.819214
 30
0.0
  0
SEQEND
  5
DF
100
AcDbEntity
  8
LAYER_1
 62
     7
  0
SPLINE
  5
CC
100
AcDbEntity
  8
LAYER_1
 62
     7
100
AcDbSpline
210
0.0
220
0.0
230
1.0
 70
     8
 71
     3
 72
    50
 73
    46
 74
     0
 42
0.00000001
 43
0.00000001
 40
0.0
 40
0.0
 40
0.0
 40
0.0
 40
1.0
 40
1.0
 40
1.0
 40
2.0
 40
2.0
 40
2.0
 40
3.0
 40
3.0
 40
3.0
 40
4.0
 40
4.0
 40
4.0
 40
5.0
 40
5.0
 40
5.0
 40
6.0
 40
6.0
 40
6.0
 40
7.0
 40
7.0
 40
7.0
 40
8.0
 40
8.0
 40
8.0
 40
9.0
 40
9.0
 40
9.0
 40
10.0
 40
10.0
 40
10.0
 40
11.0
 40
11.0
 40
11.0
 40
12.0
 40
12.0
 40
12.0
 40
13.0
 40
13.0
 40
13.0
 40
14.0
 40
14.0
 40
14.0
 40
15.0
 40
15.0
 40
15.0
 40
15.0
 10
192.99045952690972
 20
91.559613715277763
 30
0.0
 10
192.99045952690972
 20
91.559613715277763
 30
0.0
 10
71.961499023437497
 20
91.559613715277763
 30
0.0
 10
71.961499023437497
 20
91.559613715277763
 30
0.0
 10
71.961499023437497
 20
91.559613715277763
 30
0.0
 10
67.469955783420133
 20
95.955555555555549
 30
0.0
 10
67.469955783420133
 20
95.955555555555549
 30
0.0
 10
67.469955783420133
 20
95.955555555555549
 30
0.0
 10
67.472367350260413
 20
165.62089843749999
 30
0.0
 10
67.472367350260413
 20
165.62089843749999
 30
0.0
 10
67.472367350260413
 20
165.62089843749999
 30
0.0
 10
67.476673719618049
 20
171.44965549045136
 30
0.0
 10
67.476673719618049
 20
171.44965549045136
 30
0.0
 10
67.389685058593741
 20
173.61455349392361
 30
0.0
 10
65.618905978732627
 20
175.33021104600692
 30
0.0
 10
63.452457682291659
 20
175.34881456163194
 30
0.0
 10
63.452457682291659
 20
175.34881456163194
 30
0.0
 10
46.369262695312493
 20
175.33090006510415
 30
0.0
 10
46.369262695312493
 20
175.33090006510415
 30
0.0
 10
46.22491319444444
 20
175.31935899522568
 30
0.0
 10
46.086075846354163
 20
175.27043863932289
 30
0.0
 10
45.966358778211799
 20
175.18896213107638
 30
0.0
 10
45.692129177517359
 20
174.93006320529511
 30
0.0
 10
45.47836100260416
 20
174.61380343967014
 30
0.0
 10
45.3400404188368
 20
174.26309271918402
 30
0.0
 10
45.268037923177076
 20
174.0672390407986
 30
0.0
 10
45.211710611979164
 20
173.8657009548611
 30
0.0
 10
45.171747504340274
 20
173.66071777343748
 30
0.0
 10
45.171747504340274
 20
173.66071777343748
 30
0.0
 10
63.452457682291659
 20
173.62626681857637
 30
0.0
 10
63.452457682291659
 20
173.62626681857637
 30
0.0
 10
64.73592800564235
 20
173.61610378689235
 30
0.0
 10
65.773246256510404
 20
172.57723524305553
 30
0.0
 10
65.781686740451377
 20
171.29359266493054
 30
0.0
 10
65.781686740451377
 20
171.29359266493054
 30
0.0
 10
65.787715657552084
 20
166.15798882378471
 30
0.0
 10
65.787715657552084
 20
166.15798882378471
 30
0.0
 10
65.787715657552084
 20
166.15798882378471
 30
0.0
 10
65.797534179687489
 20
95.263780381944443
 30
0.0
 10
65.797534179687489
 20
95.263780381944443
 30
0.0
 10
65.797534179687489
 20
95.263780381944443
 30
0.0
 10
71.249397786458331
 20
89.88701985677082
 30
0.0
 10
71.249397786458331
 20
89.88701985677082
 30
0.0
 10
71.249397786458331
 20
89.88701985677082
 30
0.0
 10
192.41960720486108
 20
89.88701985677082
 30
0.0
 10
192.41960720486108
 20
89.88701985677082
 30
0.0
  0
MTEXT
  5
CB
100
AcDbEntity
  8
LAYER_1
 62
     7
100
AcDbMText
 10
156.489473
 20
123.755065
 30
0.0
 40
2.531312
 41
0.0
 71
     1
 72
     2
  1
\W0.50;\fMS Gothic|b0|i0|c128;乾式保護工法  600以下
  7
KANJISTD
210
0.0
220
0.0
230
1.0
 11
0.0
 21
1.0
 31
0.0
 73
     1
 44
1.0
  0
MTEXT
  5
CA
100
AcDbEntity
  8
LAYER_1
 62
     7
100
AcDbMText
 10
32.454867
 20
137.038519
 30
0.0
 40
2.531312
 41
0.0
 71
     1
 72
     2
  1
\W0.50;\fMS Gothic|b0|i0|c128;(20)
  7
STD
210
0.0
220
0.0
230
1.0
 11
1.000001
 21
0.0
 31
0.0
 73
     1
 44
1.0
  0
MTEXT
  5
C9
100
AcDbEntity
  8
LAYER_1
 62
     7
100
AcDbMText
 10
50.575552
 20
136.887624
 30
0.0
 40
2.531312
 41
0.0
 71
     1
 72
     2
  1
\W0.50;\fMS Gothic|b0|i0|c128;(180)
  7
STD
210
0.0
220
0.0
230
1.0
 11
1.000001
 21
0.0
 31
0.0
 73
     1
 44
1.0
  0
LINE
  5
C8
100
AcDbEntity
  8
LAYER_1
 62
     7
100
AcDbLine
 10
65.564473
 20
133.980452
 30
0.0
 11
32.234208
 21
133.980452
 31
0.0
  0
MTEXT
  5
C7
100
AcDbEntity
  8
LAYER_1
 62
     7
100
AcDbMText
 10
122.832468
 20
115.685128
 30
0.0
 40
2.531312
 41
0.0
 71
     1
 72
     2
  1
\W0.50;\fMS Gothic|b0|i0|c128;伸縮目地
  7
KANJISTD
210
0.0
220
0.0
230
1.0
 11
1.000001
 21
0.0
 31
0.0
 73
     1
 44
1.0
  0
MTEXT
  5
C6
100
AcDbEntity
  8
LAYER_1
 62
     7
100
AcDbMText
 10
119.805952
 20
109.39714
 30
0.0
 40
2.531312
 41
0.0
 71
     1
 72
     2
  1
\W0.50;\fMS Gothic|b0|i0|c128;溶接金網
  7
KANJISTD
210
0.0
220
0.0
230
1.0
 11
1.000001
 21
0.0
 31
0.0
 73
     1
 44
1.0
  0
POLYLINE
  5
C1
100
AcDbEntity
  8
LAYER_1
 62
     7
100
AcDb2dPolyline
 66
     1
 10
0.0
 20
0.0
 30
0.0
  0
VERTEX
  5
C2
100
AcDbEntity
  8
LAYER_1
 62
     7
100
AcDbVertex
100
AcDb2dVertex
 10
76.44598
 20
98.303044
 30
0.0
  0
VERTEX
  5
C3
100
AcDbEntity
  8
LAYER_1
 62
     7
100
AcDbVertex
100
AcDb2dVertex
 10
88.036831
 20
98.303044
 30
0.0
  0
VERTEX
  5
C4
100
AcDbEntity
  8
LAYER_1
 62
     7
100
AcDbVertex
100
AcDb2dVertex
 10
88.036831
 20
111.179433
 30
0.0
  0
SEQEND
  5
C5
100
AcDbEntity
  8
LAYER_1
 62
     7
  0
MTEXT
  5
C0
100
AcDbEntity
  8
LAYER_1
 62
     7
100
AcDbMText
 10
89.157349
 20
121.013658
 30
0.0
 40
2.531312
 41
0.0
 71
     1
 72
     2
  1
\W0.50;\fMS Gothic|b0|i0|c128;アンカー
  7
KANJISTD
210
0.0
220
0.0
230
1.0
 11
1.000001
 21
0.0
 31
0.0
 73
     1
 44
1.0
  0
MTEXT
  5
BF
100
AcDbEntity
  8
LAYER_1
 62
     7
100
AcDbMText
 10
85.096415
 20
104.225163
 30
0.0
 40
2.531312
 41
0.0
 71
     1
 72
     2
  1
\W0.50;\fMS Gothic|b0|i0|c128;50以下
  7
KANJISTD
210
0.0
220
0.0
230
1.0
 11
0.0
 21
1.0
 31
0.0
 73
     1
 44
1.0
  0
MTEXT
  5
BE
100
AcDbEntity
  8
LAYER_1
 62
     7
100
AcDbMText
 10
69.324451
 20
87.329926
 30
0.0
 40
2.531312
 41
0.0
 71
     1
 72
     2
  1
\W0.50;\fMS Gothic|b0|i0|c128;30以上
  7
KANJISTD
210
0.0
220
0.0
230
1.0
 11
1.000001
 21
0.0
 31
0.0
 73
     1
 44
1.0
  0
MTEXT
  5
BD
100
AcDbEntity
  8
LAYER_1
 62
     7
100
AcDbMText
 10
100.793159
 20
76.125097
 30
0.0
 40
2.531312
 41
0.0
 71
     1
 72
     2
  1
\W0.50;\fMS Gothic|b0|i0|c128;600程度
  7
KANJISTD
210
0.0
220
0.0
230
1.0
 11
1.000001
 21
0.0
 31
0.0
 73
     1
 44
1.0
  0
MTEXT
  5
BC
100
AcDbEntity
  8
LAYER_1
 62
     7
100
AcDbMText
 10
140.01247
 20
110.224652
 30
0.0
 40
2.531312
 41
0.0
 71
     1
 72
     2
  1
\W0.50;\fMS Gothic|b0|i0|c128;(25)
  7
STD
210
0.0
220
0.0
230
1.0
 11
1.000001
 21
0.0
 31
0.0
 73
     1
 44
1.0
  0
MTEXT
  5
BB
100
AcDbEntity
  8
LAYER_1
 62
     7
100
AcDbMText
 10
114.803473
 20
94.007354
 30
0.0
 40
2.531312
 41
0.0
 71
     1
 72
     2
  1
\W0.50;\fMS Gothic|b0|i0|c128;(80)
  7
STD
210
0.0
220
0.0
230
1.0
 11
0.0
 21
1.0
 31
0.0
 73
     1
 44
1.0
  0
LINE
  5
BA
100
AcDbEntity
  8
LAYER_1
 62
     7
100
AcDbLine
 10
117.947667
 20
91.545489
 30
0.0
 11
117.947667
 21
102.034427
 31
0.0
  0
POLYLINE
  5
B4
100
AcDbEntity
  8
LAYER_1
 62
     7
100
AcDb2dPolyline
 66
     1
 10
0.0
 20
0.0
 30
0.0
  0
VERTEX
  5
B5
100
AcDbEntity
  8
LAYER_1
 62
     7
100
AcDbVertex
100
AcDb2dVertex
 10
143.414157
 20
102.589431
 30
0.0
  0
VERTEX
  5
B6
100
AcDbEntity
  8
LAYER_1
 62
     7
100
AcDbVertex
100
AcDb2dVertex
 10
143.414157
 20
107.231698
 30
0.0
  0
VERTEX
  5
B7
100
AcDbEntity
  8
LAYER_1
 62
     7
100
AcDbVertex
100
AcDb2dVertex
 10
140.086884
 20
107.231698
 30
0.0
  0
VERTEX
  5
B8
100
AcDbEntity
  8
LAYER_1
 62
     7
100
AcDbVertex
100
AcDb2dVertex
 10
140.086884
 20
102.589431
 30
0.0
  0
SEQEND
  5
B9
100
AcDbEntity
  8
LAYER_1
 62
     7
  0
POLYLINE
  5
AE
100
AcDbEntity
  8
LAYER_1
 62
     7
100
AcDb2dPolyline
 66
     1
 10
0.0
 20
0.0
 30
0.0
 70
     1
  0
VERTEX
  5
AF
100
AcDbEntity
  8
LAYER_1
 62
     7
100
AcDbVertex
100
AcDb2dVertex
 10
143.35938
 20
92.080168
 30
0.0
  0
VERTEX
  5
B0
100
AcDbEntity
  8
LAYER_1
 62
     7
100
AcDbVertex
100
AcDb2dVertex
 10
143.35938
 20
101.809462
 30
0.0
  0
VERTEX
  5
B1
100
AcDbEntity
  8
LAYER_1
 62
     7
100
AcDbVertex
100
AcDb2dVertex
 10
140.162332
 20
101.809462
 30
0.0
  0
VERTEX
  5
B2
100
AcDbEntity
  8
LAYER_1
 62
     7
100
AcDbVertex
100
AcDb2dVertex
 10
140.162332
 20
92.080168
 30
0.0
  0
SEQEND
  5
B3
100
AcDbEntity
  8
LAYER_1
 62
     7
  0
POLYLINE
  5
A9
100
AcDbEntity
  8
LAYER_1
 62
     7
100
AcDb2dPolyline
 66
     1
 10
0.0
 20
0.0
 30
0.0
  0
VERTEX
  5
AA
100
AcDbEntity
  8
LAYER_1
 62
     7
100
AcDbVertex
100
AcDb2dVertex
 10
78.173351
 20
170.028898
 30
0.0
  0
VERTEX
  5
AB
100
AcDbEntity
  8
LAYER_1
 62
     7
100
AcDbVertex
100
AcDb2dVertex
 10
86.782817
 20
170.03286
 30
0.0
  0
VERTEX
  5
AC
100
AcDbEntity
  8
LAYER_1
 62
     7
100
AcDbVertex
100
AcDb2dVertex
 10
86.782817
 20
176.877059
 30
0.0
  0
SEQEND
  5
AD
100
AcDbEntity
  8
LAYER_1
 62
     7
  0
POLYLINE
  5
A4
100
AcDbEntity
  8
LAYER_1
 62
     7
100
AcDb2dPolyline
 66
     1
 10
0.0
 20
0.0
 30
0.0
  0
VERTEX
  5
A5
100
AcDbEntity
  8
LAYER_1
 62
     7
100
AcDbVertex
100
AcDb2dVertex
 10
86.765763
 20
171.73112
 30
0.0
  0
VERTEX
  5
A6
100
AcDbEntity
  8
LAYER_1
 62
     7
100
AcDbVertex
100
AcDb2dVertex
 10
159.655371
 20
171.733531
 30
0.0
  0
VERTEX
  5
A7
100
AcDbEntity
  8
LAYER_1
 62
     7
100
AcDbVertex
100
AcDb2dVertex
 10
159.655371
 20
101.987229
 30
0.0
  0
SEQEND
  5
A8
100
AcDbEntity
  8
LAYER_1
 62
     7
  0
LINE
  5
A3
100
AcDbEntity
  8
LAYER_1
 62
     7
100
AcDbLine
 10
76.970496
 20
171.73112
 30
0.0
 11
86.66999
 21
171.73112
 31
0.0
  0
MTEXT
  5
A2
100
AcDbEntity
  8
LAYER_1
 62
     7
100
AcDbMText
 10
92.289113
 20
127.803252
 30
0.0
 40
2.531312
 41
0.0
 71
     1
 72
     2
  1
\W0.50;\fMS Gothic|b0|i0|c128;下部ホルダー
  7
KANJISTD
210
0.0
220
0.0
230
1.0
 11
1.000001
 21
0.0
 31
0.0
 73
     1
 44
1.0
  0
INSERT
  5
94
100
AcDbEntity
  8
LAYER_1
 62
     7
100
AcDbBlockReference
  2
AI9-BLK2
 10
132.671919
 20
96.857826
 30
0.0
  0
POLYLINE
  5
8E
100
AcDbEntity
  8
LAYER_1
 62
     7
100
AcDb2dPolyline
 66
     1
 10
0.0
 20
0.0
 30
0.0
  0
VERTEX
  5
8F
100
AcDbEntity
  8
LAYER_1
 62
     7
100
AcDbVertex
100
AcDb2dVertex
 10
75.684614
 20
97.250567
 30
0.0
  0
VERTEX
  5
90
100
AcDbEntity
  8
LAYER_1
 62
     7
100
AcDbVertex
100
AcDb2dVertex
 10
75.684614
 20
83.941819
 30
0.0
  0
VERTEX
  5
91
100
AcDbEntity
  8
LAYER_1
 62
     7
100
AcDbVertex
100
AcDb2dVertex
 10
62.425647
 20
83.941819
 30
0.0
  0
SEQEND
  5
92
100
AcDbEntity
  8
LAYER_1
 62
     7
  0
LINE
  5
8D
100
AcDbEntity
  8
LAYER_1
 62
     7
100
AcDbLine
 10
60.328273
 20
175.954979
 30
0.0
 11
60.328273
 21
169.65166
 31
0.0
  0
LINE
  5
8C
100
AcDbEntity
  8
LAYER_1
 62
     7
100
AcDbLine
 10
75.706835
 20
103.442437
 30
0.0
 11
75.706835
 21
98.209337
 31
0.0
  0
POLYLINE
  5
86
100
AcDbEntity
  8
LAYER_1
 62
     7
100
AcDb2dPolyline
 66
     1
 10
0.0
 20
0.0
 30
0.0
 70
     1
  0
VERTEX
  5
87
100
AcDbEntity
  8
LAYER_1
 62
     7
100
AcDbVertex
100
AcDb2dVertex
 10
76.637355
 20
103.795559
 30
0.0
  0
VERTEX
  5
88
100
AcDbEntity
  8
LAYER_1
 62
     7
100
AcDbVertex
100
AcDb2dVertex
 10
76.637355
 20
171.618465
 30
0.0
  0
VERTEX
  5
89
100
AcDbEntity
  8
LAYER_1
 62
     7
100
AcDbVertex
100
AcDb2dVertex
 10
74.721882
 20
171.618465
 30
0.0
  0
VERTEX
  5
8A
100
AcDbEntity
  8
LAYER_1
 62
     7
100
AcDbVertex
100
AcDb2dVertex
 10
74.721882
 20
103.795559
 30
0.0
  0
SEQEND
  5
8B
100
AcDbEntity
  8
LAYER_1
 62
     7
  0
POLYLINE
  5
7C
100
AcDbEntity
  8
LAYER_1
 62
     7
100
AcDb2dPolyline
 66
     1
 10
0.0
 20
0.0
 30
0.0
 70
     1
  0
VERTEX
  5
7D
100
AcDbEntity
  8
LAYER_1
 62
     7
100
AcDbVertex
100
AcDb2dVertex
 10
77.571493
 20
105.929796
 30
0.0
  0
VERTEX
  5
7E
100
AcDbEntity
  8
LAYER_1
 62
     7
100
AcDbVertex
100
AcDb2dVertex
 10
77.56977
 20
102.788902
 30
0.0
  0
VERTEX
  5
7F
100
AcDbEntity
  8
LAYER_1
 62
     7
100
AcDbVertex
100
AcDb2dVertex
 10
73.925376
 20
102.788902
 30
0.0
  0
VERTEX
  5
80
100
AcDbEntity
  8
LAYER_1
 62
     7
100
AcDbVertex
100
AcDb2dVertex
 10
73.925548
 20
105.929796
 30
0.0
  0
VERTEX
  5
81
100
AcDbEntity
  8
LAYER_1
 62
     7
100
AcDbVertex
100
AcDb2dVertex
 10
74.343266
 20
105.929796
 30
0.0
  0
VERTEX
  5
82
100
AcDbEntity
  8
LAYER_1
 62
     7
100
AcDbVertex
100
AcDb2dVertex
 10
74.343266
 20
103.207137
 30
0.0
  0
VERTEX
  5
83
100
AcDbEntity
  8
LAYER_1
 62
     7
100
AcDbVertex
100
AcDb2dVertex
 10
77.15343
 20
103.207137
 30
0.0
  0
VERTEX
  5
84
100
AcDbEntity
  8
LAYER_1
 62
     7
100
AcDbVertex
100
AcDb2dVertex
 10
77.15343
 20
105.929796
 30
0.0
  0
SEQEND
  5
85
100
AcDbEntity
  8
LAYER_1
 62
     7
  0
LINE
  5
7B
100
AcDbEntity
  8
LAYER_1
 62
     7
100
AcDbLine
 10
180.728676
 20
101.976893
 30
0.0
 11
190.589917
 21
92.115997
 31
0.0
  0
LINE
  5
7A
100
AcDbEntity
  8
LAYER_1
 62
     7
100
AcDbLine
 10
179.54184
 20
101.884909
 30
0.0
 11
189.307652
 21
92.119786
 31
0.0
  0
LINE
  5
79
100
AcDbEntity
  8
LAYER_1
 62
     7
100
AcDbLine
 10
178.250618
 20
101.897656
 30
0.0
 11
188.013675
 21
92.133911
 31
0.0
  0
LINE
  5
78
100
AcDbEntity
  8
LAYER_1
 62
     7
100
AcDbLine
 10
155.152287
 20
101.976893
 30
0.0
 11
164.887438
 21
92.242432
 31
0.0
  0
LINE
  5
77
100
AcDbEntity
  8
LAYER_1
 62
     7
100
AcDbLine
 10
153.821102
 20
102.029259
 30
0.0
 11
163.605518
 21
92.245188
 31
0.0
  0
LINE
  5
76
100
AcDbEntity
  8
LAYER_1
 62
     7
100
AcDbLine
 10
152.67423
 20
101.897656
 30
0.0
 11
162.311884
 21
92.260346
 31
0.0
  0
LINE
  5
75
100
AcDbEntity
  8
LAYER_1
 62
     7
100
AcDbLine
 10
129.575898
 20
101.976893
 30
0.0
 11
139.439206
 21
92.113241
 31
0.0
  0
LINE
  5
74
100
AcDbEntity
  8
LAYER_1
 62
     7
100
AcDbLine
 10
128.244713
 20
102.029259
 30
0.0
 11
138.156942
 21
92.117375
 31
0.0
  0
LINE
  5
73
100
AcDbEntity
  8
LAYER_1
 62
     7
100
AcDbLine
 10
127.097496
 20
101.897656
 30
0.0
 11
136.863308
 21
92.132533
 31
0.0
  0
LINE
  5
72
100
AcDbEntity
  8
LAYER_1
 62
     7
100
AcDbLine
 10
103.999509
 20
101.976893
 30
0.0
 11
113.877976
 21
92.098082
 31
0.0
  0
LINE
  5
71
100
AcDbEntity
  8
LAYER_1
 62
     7
100
AcDbLine
 10
102.668324
 20
102.029259
 30
0.0
 11
112.596056
 21
92.101872
 31
0.0
  0
LINE
  5
70
100
AcDbEntity
  8
LAYER_1
 62
     7
100
AcDbLine
 10
101.52128
 20
101.897656
 30
0.0
 11
111.302422
 21
92.115997
 31
0.0
  0
LINE
  5
6F
100
AcDbEntity
  8
LAYER_1
 62
     7
100
AcDbLine
 10
81.693722
 20
101.976893
 30
0.0
 11
91.616113
 21
92.054674
 31
0.0
  0
LINE
  5
6E
100
AcDbEntity
  8
LAYER_1
 62
     7
100
AcDbLine
 10
80.362709
 20
102.029259
 30
0.0
 11
90.333849
 21
92.058464
 31
0.0
  0
LINE
  5
6D
100
AcDbEntity
  8
LAYER_1
 62
     7
100
AcDbLine
 10
142.767513
 20
101.910403
 30
0.0
 11
140.234679
 21
99.377224
 31
0.0
  0
LINE
  5
6C
100
AcDbEntity
  8
LAYER_1
 62
     7
100
AcDbLine
 10
140.758678
 20
101.879742
 30
0.0
 11
143.259817
 21
99.377224
 31
0.0
  0
LINE
  5
6B
100
AcDbEntity
  8
LAYER_1
 62
     7
100
AcDbLine
 10
143.307704
 20
99.893644
 30
0.0
 11
140.234679
 21
96.819241
 31
0.0
  0
LINE
  5
6A
100
AcDbEntity
  8
LAYER_1
 62
     7
100
AcDbLine
 10
140.186447
 20
99.893644
 30
0.0
 11
143.259817
 21
96.819241
 31
0.0
  0
LINE
  5
69
100
AcDbEntity
  8
LAYER_1
 62
     7
100
AcDbLine
 10
143.307704
 20
97.336005
 30
0.0
 11
140.234679
 21
94.261947
 31
0.0
  0
LINE
  5
68
100
AcDbEntity
  8
LAYER_1
 62
     7
100
AcDbLine
 10
140.186447
 20
97.336005
 30
0.0
 11
143.259817
 21
94.261947
 31
0.0
  0
LINE
  5
67
100
AcDbEntity
  8
LAYER_1
 62
     7
100
AcDbLine
 10
143.307704
 20
94.778366
 30
0.0
 11
140.638444
 21
92.108417
 31
0.0
  0
LINE
  5
66
100
AcDbEntity
  8
LAYER_1
 62
     7
100
AcDbLine
 10
140.186447
 20
94.778366
 30
0.0
 11
142.921509
 21
92.042961
 31
0.0
  0
LINE
  5
65
100
AcDbEntity
  8
LAYER_1
 62
     7
100
AcDbLine
 10
79.215664
 20
101.897656
 30
0.0
 11
89.043316
 21
92.069832
 31
0.0
  0
LINE
  5
64
100
AcDbEntity
  8
LAYER_1
 62
     7
100
AcDbLine
 10
65.680056
 20
155.36106
 30
0.0
 11
47.624483
 21
173.416461
 31
0.0
  0
LINE
  5
63
100
AcDbEntity
  8
LAYER_1
 62
     7
100
AcDbLine
 10
65.642849
 20
156.676914
 30
0.0
 11
48.827683
 21
173.491908
 31
0.0
  0
LINE
  5
62
100
AcDbEntity
  8
LAYER_1
 62
     7
100
AcDbLine
 10
65.63372
 20
157.965896
 30
0.0
 11
50.10633
 21
173.493286
 31
0.0
  0
LINE
  5
61
100
AcDbEntity
  8
LAYER_1
 62
     7
100
AcDbLine
 10
65.680056
 20
129.784671
 30
0.0
 11
40.15965
 21
155.305938
 31
0.0
  0
LINE
  5
60
100
AcDbEntity
  8
LAYER_1
 62
     7
100
AcDbLine
 10
65.642849
 20
131.100697
 30
0.0
 11
40.099878
 21
156.643669
 31
0.0
  0
LINE
  5
5F
100
AcDbEntity
  8
LAYER_1
 62
     7
100
AcDbLine
 10
65.63372
 20
132.388474
 30
0.0
 11
40.137774
 21
157.885281
 31
0.0
  0
LINE
  5
5E
100
AcDbEntity
  8
LAYER_1
 62
     7
100
AcDbLine
 10
65.680056
 20
104.208282
 30
0.0
 11
40.15965
 21
129.728516
 31
0.0
  0
LINE
  5
5D
100
AcDbEntity
  8
LAYER_1
 62
     7
100
AcDbLine
 10
65.642849
 20
105.524308
 30
0.0
 11
40.15965
 21
131.008713
 31
0.0
  0
LINE
  5
5C
100
AcDbEntity
  8
LAYER_1
 62
     7
100
AcDbLine
 10
65.63372
 20
106.812085
 30
0.0
 11
40.15965
 21
132.287188
 31
0.0
  0
LINE
  5
5B
100
AcDbEntity
  8
LAYER_1
 62
     7
100
AcDbLine
 10
52.538223
 20
66.196821
 30
0.0
 11
40.15965
 21
78.575738
 31
0.0
  0
LINE
  5
5A
100
AcDbEntity
  8
LAYER_1
 62
     7
100
AcDbLine
 10
53.854422
 20
66.159958
 30
0.0
 11
40.15965
 21
79.854902
 31
0.0
  0
LINE
  5
59
100
AcDbEntity
  8
LAYER_1
 62
     7
100
AcDbLine
 10
55.114121
 20
66.178906
 30
0.0
 11
40.15965
 21
81.133377
 31
0.0
  0
LINE
  5
58
100
AcDbEntity
  8
LAYER_1
 62
     7
100
AcDbLine
 10
192.914667
 20
79.279226
 30
0.0
 11
182.534939
 21
89.659299
 31
0.0
  0
LINE
  5
57
100
AcDbEntity
  8
LAYER_1
 62
     7
100
AcDbLine
 10
192.87746
 20
80.596631
 30
0.0
 11
183.822716
 21
89.650342
 31
0.0
  0
LINE
  5
56
100
AcDbEntity
  8
LAYER_1
 62
     7
100
AcDbLine
 10
192.783409
 20
81.968812
 30
0.0
 11
185.082932
 21
89.669634
 31
0.0
  0
LINE
  5
55
100
AcDbEntity
  8
LAYER_1
 62
     7
100
AcDbLine
 10
180.514046
 20
66.103803
 30
0.0
 11
156.958895
 21
89.659299
 31
0.0
  0
LINE
  5
54
100
AcDbEntity
  8
LAYER_1
 62
     7
100
AcDbLine
 10
181.830417
 20
66.066596
 30
0.0
 11
158.246327
 21
89.650342
 31
0.0
  0
LINE
  5
53
100
AcDbEntity
  8
LAYER_1
 62
     7
100
AcDbLine
 10
183.146444
 20
66.029389
 30
0.0
 11
159.506198
 21
89.669634
 31
0.0
  0
LINE
  5
52
100
AcDbEntity
  8
LAYER_1
 62
     7
100
AcDbLine
 10
154.937657
 20
66.103803
 30
0.0
 11
131.382161
 21
89.659299
 31
0.0
  0
LINE
  5
51
100
AcDbEntity
  8
LAYER_1
 62
     7
100
AcDbLine
 10
156.254028
 20
66.066596
 30
0.0
 11
132.669938
 21
89.650342
 31
0.0
  0
LINE
  5
50
100
AcDbEntity
  8
LAYER_1
 62
     7
100
AcDbLine
 10
157.570055
 20
66.029389
 30
0.0
 11
133.92981
 21
89.669634
 31
0.0
  0
LINE
  5
4F
100
AcDbEntity
  8
LAYER_1
 62
     7
100
AcDbLine
 10
129.361268
 20
66.103803
 30
0.0
 11
105.805773
 21
89.659299
 31
0.0
  0
LINE
  5
4E
100
AcDbEntity
  8
LAYER_1
 62
     7
100
AcDbLine
 10
130.677639
 20
66.066596
 30
0.0
 11
107.093549
 21
89.650342
 31
0.0
  0
LINE
  5
4D
100
AcDbEntity
  8
LAYER_1
 62
     7
100
AcDbLine
 10
131.993666
 20
66.029389
 30
0.0
 11
108.353421
 21
89.669634
 31
0.0
  0
LINE
  5
4C
100
AcDbEntity
  8
LAYER_1
 62
     7
100
AcDbLine
 10
103.715805
 20
66.172705
 30
0.0
 11
80.229384
 21
89.659299
 31
0.0
  0
LINE
  5
4B
100
AcDbEntity
  8
LAYER_1
 62
     7
100
AcDbLine
 10
105.032004
 20
66.135498
 30
0.0
 11
81.517333
 21
89.650342
 31
0.0
  0
LINE
  5
4A
100
AcDbEntity
  8
LAYER_1
 62
     7
100
AcDbLine
 10
106.310479
 20
66.135498
 30
0.0
 11
82.777032
 21
89.669634
 31
0.0
  0
LINE
  5
49
100
AcDbEntity
  8
LAYER_1
 62
     7
100
AcDbLine
 10
78.183858
 20
66.127919
 30
0.0
 11
40.15965
 21
104.152127
 31
0.0
  0
LINE
  5
48
100
AcDbEntity
  8
LAYER_1
 62
     7
100
AcDbLine
 10
79.500057
 20
66.090712
 30
0.0
 11
40.15965
 21
105.430946
 31
0.0
  0
LINE
  5
47
100
AcDbEntity
  8
LAYER_1
 62
     7
100
AcDbLine
 10
80.796791
 20
66.072797
 30
0.0
 11
40.15965
 21
106.709766
 31
0.0
  0
LINE
  5
46
100
AcDbEntity
  8
LAYER_1
 62
     7
100
AcDbLine
 10
114.180455
 20
96.222206
 30
0.0
 11
73.502662
 21
96.222206
 31
0.0
  0
LINE
  5
45
100
AcDbEntity
  8
LAYER_1
 62
     7
100
AcDbLine
 10
139.109511
 20
96.222206
 30
0.0
 11
118.691808
 21
96.222206
 31
0.0
  0
LINE
  5
44
100
AcDbEntity
  8
LAYER_1
 62
     7
100
AcDbLine
 10
192.99046
 20
96.117475
 30
0.0
 11
144.523134
 21
96.117475
 31
0.0
  0
LINE
  5
43
100
AcDbEntity
  8
LAYER_1
 62
     7
100
AcDbLine
 10
192.99046
 20
101.930729
 30
0.0
 11
67.615683
 21
101.930729
 31
0.0
  0
LINE
  5
42
100
AcDbEntity
  8
LAYER_1
 62
     7
100
AcDbLine
 10
42.654933
 20
66.11276
 30
0.0
 11
42.654933
 21
173.541862
 31
0.0
  0
MTEXT
  5
41
100
AcDbEntity
  8
LAYER_1
 62
     7
100
AcDbMText
 10
90.623754
 20
152.404851
 30
0.0
 40
2.531312
 41
0.0
 71
     1
 72
     2
  1
\W0.50;\fMS Gothic|b0|i0|c128;ボード
  7
KANJISTD
210
0.0
220
0.0
230
1.0
 11
1.000001
 21
0.0
 31
0.0
 73
     1
 44
1.0
  0
MTEXT
  5
40
100
AcDbEntity
  8
LAYER_1
 62
     7
100
AcDbMText
 10
91.676402
 20
138.834103
 30
0.0
 40
2.531312
 41
0.0
 71
     1
 72
     2
  1
\W0.50;\fMS Gothic|b0|i0|c128;成形緩衝材
  7
KANJISTD
210
0.0
220
0.0
230
1.0
 11
1.000001
 21
0.0
 31
0.0
 73
     1
 44
1.0
  0
INSERT
  5
2C
100
AcDbEntity
  8
LAYER_1
 62
     7
100
AcDbBlockReference
  2
AI9-BLK1
 10
69.267693
 20
97.23248
 30
0.0
  0
ENDSEC
  0
SECTION
  2
OBJECTS
  0
DICTIONARY
  5
19
100
AcDbDictionary
280
     0
281
     1
  3
ACAD_GROUP
350
1A
  3
ACAD_MLINESTYLE
350
1B
  3
ACAD_LAYOUT
350
1E
  3
ACAD_PLOTSETTINGS
350
22
  3
ACAD_PLOTSTYLENAME
350
1F
  3
ACAD_WIPEOUT_VARS
350
23
  0
DICTIONARY
  5
1A
102
{ACAD_REACTORS
330
19
102
}
100
AcDbDictionary
280
     0
281
     1
  0
DICTIONARY
  5
1B
102
{ACAD_REACTORS
330
19
102
}
100
AcDbDictionary
280
     0
281
     1
  3
Standard
350
1C
  0
MLINESTYLE
  5
1C
102
{ACAD_REACTORS
330
1B
102
}
100
AcDbMlineStyle
  2
Standard
 70
     0
  3

 62
     0
 51
90.0
 52
90.0
 71
     2
 49
0.5
 62
   256
  6
BYLAYER
 49
-0.5
 62
   256
  6
BYLAYER
  0
ACDBDICTIONARYWDFLT
  5
1F
102
{ACAD_REACTORS
330
19
102
}
100
AcDbDictionary
281
     1
  3
Normal
350
1D
100
AcDbDictionaryWithDefault
340
1D
  0
ACDBPLACEHOLDER
  5
1D
102
{ACAD_REACTORS
330
1F
102
}
  0
LAYOUT
  5
20
102
{ACAD_REACTORS
330
1E
102
}
100
AcDbPlotSettings
  1

  2

  4

  6

 40
0.0
 41
0.0
 42
0.0
 43
0.0
 44
0.0
 45
0.0
 46
0.0
 47
0.0
 48
0.0
 49
0.0
140
0.0
141
0.0
142
1.0
143
1.0
 70
  1024
 72
     0
 73
     0
 74
     0
  7

 75
     0
147
1.0
148
0.0
149
0.0
100
AcDbLayout
  1
Model
 70
     0
 71
     0
 10
0.0
 20
0.0
 11
0.0
 21
0.0
 12
0.0
 22
0.0
 32
0.0
 14
0.0
 24
0.0
 34
0.0
 15
0.0
 25
0.0
 35
0.0
146
0.0
 13
0.0
 23
0.0
 33
0.0
 16
0.0
 26
0.0
 36
0.0
 17
0.0
 27
0.0
 37
0.0
 76
     0
330
A
331
0
345
0
346
0
  0
LAYOUT
  5
21
102
{ACAD_REACTORS
330
1E
102
}
100
AcDbPlotSettings
  1

  2

  4

  6

 40
0.0
 41
0.0
 42
0.0
 43
0.0
 44
0.0
 45
0.0
 46
0.0
 47
0.0
 48
0.0
 49
0.0
140
0.0
141
0.0
142
1.0
143
1.0
 70
     0
 72
     0
 73
     0
 74
     0
  7

 75
     0
147
1.0
148
0.0
149
0.0
100
AcDbLayout
  1
Layout1
 70
     0
 71
     0
 10
0.0
 20
0.0
 11
0.0
 21
0.0
 12
0.0
 22
0.0
 32
0.0
 14
0.0
 24
0.0
 34
0.0
 15
0.0
 25
0.0
 35
0.0
146
0.0
 13
0.0
 23
0.0
 33
0.0
 16
0.0
 26
0.0
 36
0.0
 17
0.0
 27
0.0
 37
0.0
 76
     0
330
B
331
0
345
0
346
0
  0
DICTIONARY
  5
1E
102
{ACAD_REACTORS
330
19
102
}
100
AcDbDictionary
280
     0
281
     1
  3
Layout1
350
21
  3
Model
350
20
  0
DICTIONARY
  5
22
102
{ACAD_REACTORS
330
19
102
}
100
AcDbDictionary
280
     0
281
     1
  0
WIPEOUTVARIABLES
  5
23
100
AcDbWipeoutVariables
 70
     1
  0
ENDSEC
  0
EOF
