  0
SECTION
  2
HEADER
  9
$ACADVER
  1
AC1015
  9
$ACADMAINTVER
 70
     6
  9
$DWGCODEPAGE
  3
ANSI_932
  9
$INSBASE
 10
0.0
 20
0.0
 30
0.0
  9
$EXTMIN
 10
4.7625
 20
67.551432
 30
1.000000E+20
  9
$EXTMAX
 10
203.905556
 20
247.836896
 30
-1.000000E+20
  9
$LIMMIN
 10
4.7625
 20
67.551432
  9
$LIMMAX
 10
203.905556
 20
247.836896
  9
$ORTHOMODE
 70
     0
  9
$REGENMODE
 70
     1
  9
$FILLMODE
 70
     1
  9
$QTEXTMODE
 70
     0
  9
$MIRRTEXT
 70
     1
  9
$LTSCALE
 40
1.0
  9
$ATTMODE
 70
     1
  9
$TEXTSIZE
 40
0.2
  9
$TRACEWID
 40
0.05
  9
$TEXTSTYLE
  7
Standard
  9
$CLAYER
  8
0
  9
$CELTYPE
  6
Continuous
  9
$CECOLOR
 62
   256
  9
$CELTSCALE
 40
1.0
  9
$DISPSILH
 70
     0
  9
$DIMSCALE
 40
1.0
  9
$DIMASZ
 40
0.18
  9
$DIMEXO
 40
0.0625
  9
$DIMDLI
 40
0.38
  9
$DIMRND
 40
0.0
  9
$DIMDLE
 40
0.0
  9
$DIMEXE
 40
0.18
  9
$DIMTP
 40
0.0
  9
$DIMTM
 40
0.0
  9
$DIMTXT
 40
0.18
  9
$DIMCEN
 40
0.09
  9
$DIMTSZ
 40
0.0
  9
$DIMTOL
 70
     0
  9
$DIMLIM
 70
     0
  9
$DIMTIH
 70
     1
  9
$DIMTOH
 70
     1
  9
$DIMSE1
 70
     0
  9
$DIMSE2
 70
     0
  9
$DIMTAD
 70
     0
  9
$DIMZIN
 70
     0
  9
$DIMBLK
  1

  9
$DIMASO
 70
     1
  9
$DIMSHO
 70
     1
  9
$DIMPOST
  1

  9
$DIMAPOST
  1

  9
$DIMALT
 70
     0
  9
$DIMALTD
 70
     2
  9
$DIMALTF
 40
25.4
  9
$DIMLFAC
 40
1.0
  9
$DIMTOFL
 70
     0
  9
$DIMTVP
 40
0.0
  9
$DIMTIX
 70
     0
  9
$DIMSOXD
 70
     0
  9
$DIMSAH
 70
     0
  9
$DIMBLK1
  1

  9
$DIMBLK2
  1

  9
$DIMSTYLE
  2
Standard
  9
$DIMCLRD
 70
     0
  9
$DIMCLRE
 70
     0
  9
$DIMCLRT
 70
     0
  9
$DIMTFAC
 40
1.0
  9
$DIMGAP
 40
0.09
  9
$DIMJUST
 70
     0
  9
$DIMSD1
 70
     0
  9
$DIMSD2
 70
     0
  9
$DIMTOLJ
 70
     1
  9
$DIMTZIN
 70
     0
  9
$DIMALTZ
 70
     0
  9
$DIMALTTZ
 70
     0
  9
$DIMUPT
 70
     0
  9
$DIMDEC
 70
     4
  9
$DIMTDEC
 70
     4
  9
$DIMALTU
 70
     2
  9
$DIMALTTD
 70
     2
  9
$DIMTXSTY
  7
Standard
  9
$DIMAUNIT
 70
     0
  9
$DIMADEC
 70
     0
  9
$DIMALTRND
 40
0.0
  9
$DIMAZIN
 70
     0
  9
$DIMDSEP
 70
     0
  9
$DIMATFIT
 70
     3
  9
$DIMFRAC
 70
     0
  9
$DIMLDRBLK
  1

  9
$DIMLUNIT
 70
     2
  9
$DIMLWD
 70
     0
  9
$DIMLWE
 70
     0
  9
$DIMTMOVE
 70
     0
  9
$LUNITS
 70
     2
  9
$LUPREC
 70
     4
  9
$SKETCHINC
 40
0.1
  9
$FILLETRAD
 40
0.0
  9
$AUNITS
 70
     0
  9
$AUPREC
 70
     0
  9
$MENU
  1
acad
  9
$ELEVATION
 40
0.0
  9
$PELEVATION
 40
0.0
  9
$THICKNESS
 40
0.0
  9
$LIMCHECK
 70
     0
  9
$CHAMFERA
 40
0.0
  9
$CHAMFERB
 40
0.0
  9
$CHAMFERC
 40
0.0
  9
$CHAMFERD
 40
0.0
  9
$SKPOLY
 70
     0
  9
$TDCREATE
 40
0.000000000
  9
$TDUCREATE
 40
0.000000000
  9
$TDUPDATE
 40
0.000000000
  9
$TDUUPDATE
 40
0.000000000
  9
$TDINDWG
 40
0.0000000000
  9
$TDUSRTIMER
 40
0.0000000000
  9
$USRTIMER
 70
     1
  9
$ANGBASE
 50
0.0
  9
$ANGDIR
 70
     0
  9
$PDMODE
 70
     0
  9
$PDSIZE
 40
0.0
  9
$PLINEWID
 40
0.0
  9
$SPLFRAME
 70
     0
  9
$SPLINETYPE
 70
     6
  9
$SPLINESEGS
 70
     8
  9
$HANDSEED
  5
224
  9
$SURFTAB1
 70
     6
  9
$SURFTAB2
 70
     6
  9
$SURFTYPE
 70
     6
  9
$SURFU
 70
     6
  9
$SURFV
 70
     6
  9
$UCSBASE
  2

  9
$UCSNAME
  2

  9
$UCSORG
 10
0.0
 20
0.0
 30
0.0
  9
$UCSXDIR
 10
1.0
 20
0.0
 30
0.0
  9
$UCSYDIR
 10
0.0
 20
1.0
 30
0.0
  9
$UCSORTHOREF
  2

  9
$UCSORTHOVIEW
 70
     0
  9
$UCSORGTOP
 10
0.0
 20
0.0
 30
0.0
  9
$UCSORGBOTTOM
 10
0.0
 20
0.0
 30
0.0
  9
$UCSORGLEFT
 10
0.0
 20
0.0
 30
0.0
  9
$UCSORGRIGHT
 10
0.0
 20
0.0
 30
0.0
  9
$UCSORGFRONT
 10
0.0
 20
0.0
 30
0.0
  9
$UCSORGBACK
 10
0.0
 20
0.0
 30
0.0
  9
$PUCSBASE
  2

  9
$PUCSNAME
  2

  9
$PUCSORG
 10
0.0
 20
0.0
 30
0.0
  9
$PUCSXDIR
 10
1.0
 20
0.0
 30
0.0
  9
$PUCSYDIR
 10
0.0
 20
1.0
 30
0.0
  9
$PUCSORTHOREF
  2

  9
$PUCSORTHOVIEW
 70
     0
  9
$PUCSORGTOP
 10
0.0
 20
0.0
 30
0.0
  9
$PUCSORGBOTTOM
 10
0.0
 20
0.0
 30
0.0
  9
$PUCSORGLEFT
 10
0.0
 20
0.0
 30
0.0
  9
$PUCSORGRIGHT
 10
0.0
 20
0.0
 30
0.0
  9
$PUCSORGFRONT
 10
0.0
 20
0.0
 30
0.0
  9
$PUCSORGBACK
 10
0.0
 20
0.0
 30
0.0
  9
$USERI1
 70
     0
  9
$USERI2
 70
     0
  9
$USERI3
 70
     0
  9
$USERI4
 70
     0
  9
$USERI5
 70
     0
  9
$USERR1
 40
0.0
  9
$USERR2
 40
0.0
  9
$USERR3
 40
0.0
  9
$USERR4
 40
0.0
  9
$USERR5
 40
0.0
  9
$WORLDVIEW
 70
     1
  9
$SHADEDGE
 70
     3
  9
$SHADEDIF
 70
    70
  9
$TILEMODE
 70
     1
  9
$MAXACTVP
 70
    16
  9
$PINSBASE
 10
0.0
 20
0.0
 30
0.0
  9
$PLIMCHECK
 70
     0
  9
$PEXTMIN
 10
1.000000E+20
 20
1.000000E+20
 30
1.000000E+20
  9
$PEXTMAX
 10
-1.000000E+20
 20
-1.000000E+20
 30
-1.000000E+20
  9
$PLIMMIN
 10
0.0
 20
0.0
  9
$PLIMMAX
 10
12.0
 20
9.0
  9
$UNITMODE
 70
     0
  9
$VISRETAIN
 70
     0
  9
$PLINEGEN
 70
     1
  9
$PSLTSCALE
 70
     0
  9
$TREEDEPTH
 70
  3020
  9
$CMLSTYLE
  2
Standard
  9
$CMLJUST
 70
     0
  9
$CMLSCALE
 40
1.0
  9
$PROXYGRAPHICS
 70
     0
  9
$MEASUREMENT
 70
     0
  9
$CELWEIGHT
370
     0
  9
$ENDCAPS
280
     0
  9
$JOINSTYLE
280
     0
  9
$LWDISPLAY
290
     0
  9
$INSUNITS
 70
     0
  9
$HYPERLINKBASE
  1

  9
$XEDIT
290
     1
  9
$CEPSNTYPE
380
     0
  9
$PSTYLEMODE
290
     1
  9
$FINGERPRINTGUID
  2

  9
$VERSIONGUID
  2

  9
$EXTNAMES
290
     1
  9
$PSVPSCALE
 40
0.0
  0
ENDSEC
  0
SECTION
  2
CLASSES
  0
CLASS
  1
LWPOLYLINE
  2
AcDbPolyline
  3
"AutoCAD"
 90
        0
280
     0
281
     1
  0
CLASS
  1
IMAGE
  2
AcDbRasterImage
  3
ISM
 90
      127
280
     0
281
     1
  0
CLASS
  1
OLE2FRAME
  2
AcDbOle2Frame
  3
""
 90
        0
280
     0
281
     1
  0
CLASS
  1
HATCH
  2
AcDbHatch
  3
"ACAD_SEDONA"
 90
        0
280
     0
281
     1
  0
CLASS
  1
DICTIONARYVAR
  2
AcDbDictionaryVar
  3
"AutoCAD"
 90
        0
280
     0
281
     0
  0
CLASS
  1
RASTERVARIABLES
  2
AcDbRasterVariables
  3
ISM
 90
        0
280
     0
281
     0
  0
CLASS
  1
IMAGEDEF
  2
AcDbRasterImageDef
  3
ISM
 90
        0
280
     0
281
     0
  0
CLASS
  1
IMAGEDEF_REACTOR
  2
AcDbRasterImageDefReactor
  3
ISM
 90
        1
280
     0
281
     0
  0
CLASS
  1
IDBUFFER
  2
AcDbIdBuffer
  3
"Acad"
 90
        0
280
     0
281
     0
  0
CLASS
  1
SPATIAL_FILTER
  2
AcDbSpatialFilter
  3
"Acad"
 90
        0
280
     0
281
     0
  0
CLASS
  1
XRECORD
  2
AcDbXrecord
  3
"<Built In>"
 90
        0
280
     0
281
     0
  0
CLASS
  1
SORTENTSTABLE
  2
AcDbSortentsTable
  3
"AutoCAD"
 90
        0
280
     0
281
     0
  0
CLASS
  1
LAYER_INDEX
  2
AcDbLayerIndex
  3
"Acad"
 90
        0
280
     0
281
     0
  0
CLASS
  1
SPATIAL_INDEX
  2
AcDbSpatialIndex
  3
"Acad"
 90
        0
280
     0
281
     0
  0
CLASS
  1
OBJECT_PTR
  2
CAseDLPNTableRecord
  3
"ASE-LPNTableRecord"
 90
        1
280
     0
281
     0
  0
CLASS
  1
LAYOUT
  2
AcDbLayout
  3
"AutoCAD 2000"
 90
        1
280
     0
281
     0
  0
CLASS
  1
PLOTSETTINGS
  2
AcDbPlotSettings
  3
"AutoCAD 2000"
 90
        1
280
     0
281
     0
  0
CLASS
  1
ACDBDICTIONARYWDFLT
  2
AcDbDictionaryWithDefault
  3
"AutoCAD 2000"
 90
        1
280
     0
281
     0
  0
CLASS
  1
ACDBPLACEHOLDER
  2
AcDbPlaceHolder
  3
"AutoCAD 2000"
 90
        1
280
     0
281
     0
  0
CLASS
  1
VBA_PROJECT
  2
AcDbVbaProject
  3
"acadvba"
 90
        1
280
     0
281
     0
  0
CLASS
  1
WIPEOUT
  2
AcDbWipeout
  3
WipeOut|AutoCAD Express Tool|expresstools@autodesk.com
 90
      127
280
     0
281
     1
  0
CLASS
  1
WIPEOUTVARIABLES
  2
AcDbWipeoutVariables
  3
WipeOut|AutoCAD Express Tool|expresstools@autodesk.com
 90
        0
280
     0
281
     0
  0
CLASS
  1
RTEXT
  2
RText
  3
RText|AutoCAD Express Tool|expresstools@autodesk.com
 90
        0
280
     0
281
     1
  0
CLASS
  1
ARCALIGNEDTEXT
  2
AcDbArcAlignedText
  3
ATEXT|AutoCAD Express Tool|expresstools@autodesk.com
 90
        0
280
     0
281
     1
  0
ENDSEC
  0
SECTION
  2
TABLES
  0
TABLE
  2
VPORT
  5
7
100
AcDbSymbolTable
 70
     1
  0
VPORT
  5
15
100
AcDbSymbolTableRecord
100
AcDbViewportTableRecord
  2
*ACTIVE
 70
     0
 10
0.0
 20
0.0
 11
1.0
 21
1.0
 12
6.591288
 22
4.579184
 13
0.0
 23
0.0
 14
1.0
 24
1.0
 15
0.0
 25
0.0
 16
0.0
 26
0.0
 36
1.0
 17
0.0
 27
0.0
 37
0.0
 40
9.158369
 41
0.688564
 42
50.0
 43
0.0
 44
0.0
 50
0.0
 51
0.0
 71
     0
 72
   100
 73
     1
 74
     1
 75
     0
 76
     0
 77
     0
 78
     0
281
     0
 65
     0
110
0.0
120
0.0
130
0.0
111
1.0
121
0.0
131
0.0
112
0.0
122
1.0
132
0.0
345
0
346
0
 79
     0
146
0.0
  0
ENDTAB
  0
TABLE
  2
LTYPE
  5
4
100
AcDbSymbolTable
 70
     3
  0
LTYPE
  5
11
100
AcDbSymbolTableRecord
100
AcDbLinetypeTableRecord
  2
ByBlock
 70
    64
  3

 72
    65
 73
     0
 40
0.0
  0
LTYPE
  5
12
100
AcDbSymbolTableRecord
100
AcDbLinetypeTableRecord
  2
ByLayer
 70
    64
  3

 72
    65
 73
     0
 40
0.0
  0
LTYPE
  5
13
100
AcDbSymbolTableRecord
100
AcDbLinetypeTableRecord
  2
Continuous
 70
    64
  3
Solid line
 72
    65
 73
     0
 40
0.0
  0
ENDTAB
  0
TABLE
  2
LAYER
  5
2
100
AcDbSymbolTable
 70
     4
  0
LAYER
  5
14
100
AcDbSymbolTableRecord
100
AcDbLayerTableRecord
  2
0
 70
     0
 62
     7
  6
Continuous
290
     1
370
    -3
390
1D
  0
LAYER
  5
28
100
AcDbSymbolTableRecord
100
AcDbLayerTableRecord
  2
レイヤー_1
 70
     0
 62
   160
  6
Continuous
290
     1
370
    -3
390
1F
  0
LAYER
  5
30
100
AcDbSymbolTableRecord
100
AcDbLayerTableRecord
  2
0
 70
     0
 62
     7
  6
Continuous
290
     1
370
    -3
390
1F
  0
LAYER
  5
31
100
AcDbSymbolTableRecord
100
AcDbLayerTableRecord
  2
LAYER_1
 70
     0
 62
     7
  6
Continuous
290
     1
370
    -3
390
1F
  0
ENDTAB
  0
TABLE
  2
STYLE
  5
3
100
AcDbSymbolTable
 70
     5
  0
STYLE
  5
17
100
AcDbSymbolTableRecord
100
AcDbTextStyleTableRecord
  2
Standard
 70
     0
 40
0.0
 41
1.0
 50
0.0
 71
     0
 42
0.0
  3
txt
  4

  0
STYLE
  5
24
100
AcDbSymbolTableRecord
100
AcDbTextStyleTableRecord
  2
STD
 70
     0
 40
0.0
 41
1.0
 50
0.0
 71
     0
 42
0.0
  3
txt
  4

  0
STYLE
  5
25
100
AcDbSymbolTableRecord
100
AcDbTextStyleTableRecord
  2
TATESTD
 70
     4
 40
0.0
 41
1.0
 50
0.0
 71
     0
 42
0.0
  3
txt
  4

  0
STYLE
  5
26
100
AcDbSymbolTableRecord
100
AcDbTextStyleTableRecord
  2
KANJISTD
 70
     0
 40
0.0
 41
1.0
 50
0.0
 71
     0
 42
0.0
  3
txt
  4
extfont
  0
STYLE
  5
27
100
AcDbSymbolTableRecord
100
AcDbTextStyleTableRecord
  2
KANJITATE
 70
     4
 40
0.0
 41
1.0
 50
0.0
 71
     0
 42
0.0
  3
txt
  4
extfont
  0
ENDTAB
  0
TABLE
  2
VIEW
  5
5
100
AcDbSymbolTable
 70
     0
  0
ENDTAB
  0
TABLE
  2
UCS
  5
6
100
AcDbSymbolTable
 70
     0
  0
ENDTAB
  0
TABLE
  2
APPID
  5
8
100
AcDbSymbolTable
 70
     1
  0
APPID
  5
16
100
AcDbSymbolTableRecord
100
AcDbRegAppTableRecord
  2
ACAD
 70
     0
  0
ENDTAB
  0
TABLE
  2
DIMSTYLE
  5
9
100
AcDbSymbolTable
 70
     1
100
AcDbDimStyleTable
 71
     0
  0
DIMSTYLE
105
18
100
AcDbSymbolTableRecord
100
AcDbDimStyleTableRecord
  2
Standard
 70
     0
  3

  4

 40
1.0
 41
0.18
 42
0.0625
 43
0.38
 44
0.18
 45
0.0
 46
0.0
 47
0.0
 48
0.0
 71
     0
 72
     0
 73
     1
 74
     1
 75
     0
 76
     0
 77
     0
 78
     0
 79
     0
140
0.18
141
0.09
142
0.0
143
25.4
144
1.0
145
0.0
146
1.0
147
0.09
148
0.0
170
     0
171
     2
172
     0
173
     0
174
     0
175
     0
176
     0
177
     0
178
     0
179
     0
271
     4
272
     4
273
     2
274
     2
275
     0
276
     0
277
     2
278
    46
279
     0
280
     0
281
     0
282
     0
283
     1
284
     0
285
     0
286
     0
288
     0
340
17
341
0
342
0
343
0
344
0
371
    -2
372
    -2
  0
ENDTAB
  0
TABLE
  2
BLOCK_RECORD
  5
1
100
AcDbSymbolTable
 70
     2
  0
BLOCK_RECORD
  5
A
100
AcDbSymbolTableRecord
100
AcDbBlockTableRecord
  2
*MODEL_SPACE
340
20
  0
BLOCK_RECORD
  5
B
100
AcDbSymbolTableRecord
100
AcDbBlockTableRecord
  2
*PAPER_SPACE
340
21
  0
BLOCK_RECORD
  5
32
100
AcDbSymbolTableRecord
100
AcDbBlockTableRecord
  2
AI9-BLK1
340
0
  0
BLOCK_RECORD
  5
A8
100
AcDbSymbolTableRecord
100
AcDbBlockTableRecord
  2
AI9-BLK2
340
0
  0
ENDTAB
  0
ENDSEC
  0
SECTION
  2
BLOCKS
  0
BLOCK
  5
D
100
AcDbEntity
  8
0
100
AcDbBlockBegin
  2
*MODEL_SPACE
 70
     0
 10
0.0
 20
0.0
 30
0.0
  3
*MODEL_SPACE
  1

  0
ENDBLK
  5
E
100
AcDbEntity
  8
0
100
AcDbBlockEnd
  0
BLOCK
  5
F
100
AcDbEntity
 67
     1
  8
0
100
AcDbBlockBegin
  2
*PAPER_SPACE
 70
     0
 10
0.0
 20
0.0
 30
0.0
  3
*PAPER_SPACE
  1

  0
ENDBLK
  5
10
100
AcDbEntity
 67
     1
  8
0
100
AcDbBlockEnd
  0
BLOCK
  5
34
100
AcDbEntity
  8
LAYER_1
 62
     7
100
AcDbBlockBegin
  2
AI9-BLK1
 70
     0
 10
0.0
 20
0.0
 30
0.0
  3
AI9-BLK1
  1

  0
LINE
  5
45
100
AcDbEntity
  8
LAYER_1
 62
     7
100
AcDbLine
 10
0.226946
 20
4.761294
 30
0.0
 11
-1.640296
 21
2.893708
 31
0.0
  0
LINE
  5
44
100
AcDbEntity
  8
LAYER_1
 62
     7
100
AcDbLine
 10
1.722462
 20
2.634981
 30
0.0
 11
-1.730902
 21
-0.818382
 31
0.0
  0
LINE
  5
43
100
AcDbEntity
  8
LAYER_1
 62
     7
100
AcDbLine
 10
1.743649
 20
-0.967211
 30
0.0
 11
-0.265875
 21
-2.97639
 31
0.0
  0
LINE
  5
42
100
AcDbEntity
  8
LAYER_1
 62
     7
100
AcDbLine
 10
1.708164
 20
-4.289661
 30
0.0
 11
1.391043
 21
-4.607987
 31
0.0
  0
LINE
  5
41
100
AcDbEntity
  8
LAYER_1
 62
     7
100
AcDbLine
 10
1.735553
 20
4.459159
 30
0.0
 11
-1.725907
 21
0.997527
 31
0.0
  0
LINE
  5
40
100
AcDbEntity
  8
LAYER_1
 62
     7
100
AcDbLine
 10
1.717122
 20
0.817349
 30
0.0
 11
-1.187955
 21
-2.0879
 31
0.0
  0
LINE
  5
3F
100
AcDbEntity
  8
LAYER_1
 62
     7
100
AcDbLine
 10
1.713504
 20
-2.473751
 30
0.0
 11
0.477576
 21
-3.709507
 31
0.0
  0
LINE
  5
3E
100
AcDbEntity
  8
LAYER_1
 62
     7
100
AcDbLine
 10
-0.65586
 20
4.890485
 30
0.0
 11
1.723151
 21
2.511302
 31
0.0
  0
LINE
  5
3D
100
AcDbEntity
  8
LAYER_1
 62
     7
100
AcDbLine
 10
-1.736414
 20
0.341237
 30
0.0
 11
1.726251
 21
-3.121773
 31
0.0
  0
LINE
  5
3C
100
AcDbEntity
  8
LAYER_1
 62
     7
100
AcDbLine
 10
-1.744338
 20
2.271524
 30
0.0
 11
1.728146
 21
-1.200444
 31
0.0
  0
LINE
  5
3B
100
AcDbEntity
  8
LAYER_1
 62
     7
100
AcDbLine
 10
-1.734692
 20
4.045059
 30
0.0
 11
1.753123
 21
0.5569
 31
0.0
  0
POLYLINE
  5
36
100
AcDbEntity
  8
LAYER_1
 62
     7
100
AcDb2dPolyline
 66
     1
 10
0.0
 20
0.0
 30
0.0
  0
VERTEX
  5
37
100
AcDbEntity
  8
LAYER_1
 62
     7
100
AcDbVertex
100
AcDb2dVertex
 10
1.734692
 20
-4.890485
 30
0.0
  0
VERTEX
  5
38
100
AcDbEntity
  8
LAYER_1
 62
     7
100
AcDbVertex
100
AcDb2dVertex
 10
1.733141
 20
4.867059
 30
0.0
  0
VERTEX
  5
39
100
AcDbEntity
  8
LAYER_1
 62
     7
100
AcDbVertex
100
AcDb2dVertex
 10
-1.702997
 20
4.867059
 30
0.0
  0
SEQEND
  5
3A
100
AcDbEntity
  8
LAYER_1
 62
     7
  0
LINE
  5
35
100
AcDbEntity
  8
LAYER_1
 62
     7
100
AcDbLine
 10
0.330299
 20
4.864647
 30
0.0
 11
-1.753123
 21
2.781053
 31
0.0
  0
ENDBLK
  5
46
100
AcDbEntity
  8
LAYER_1
100
AcDbBlockEnd
  0
BLOCK
  5
AA
100
AcDbEntity
  8
LAYER_1
 62
     7
100
AcDbBlockBegin
  2
AI9-BLK2
 70
     0
 10
0.0
 20
0.0
 30
0.0
  3
AI9-BLK2
  1

  0
SPLINE
  5
AC
100
AcDbEntity
  8
LAYER_1
 62
     7
100
AcDbSpline
210
0.0
220
0.0
230
1.0
 70
     8
 71
     3
 72
    17
 73
    13
 74
     0
 42
0.00000001
 43
0.00000001
 40
0.0
 40
0.0
 40
0.0
 40
0.0
 40
1.0
 40
1.0
 40
1.0
 40
2.0
 40
2.0
 40
2.0
 40
3.0
 40
3.0
 40
3.0
 40
4.0
 40
4.0
 40
4.0
 40
4.0
 10
-4.7159912109374993
 20
-3.0564887152777773
 30
0.0
 10
-4.6389933268229164
 20
-2.987242296006944
 30
0.0
 10
-4.5945515950520832
 20
-2.8887125651041665
 30
0.0
 10
-4.5936903211805555
 20
-2.7850151909722221
 30
0.0
 10
-4.5950683593749995
 20
-2.5848551432291664
 30
0.0
 10
-4.7568155924479161
 20
-2.4229356553819441
 30
0.0
 10
-4.9568033854166664
 20
-2.4215576171874997
 30
0.0
 10
-5.1569634331597216
 20
-2.4229356553819441
 30
0.0
 10
-5.3187106662326382
 20
-2.5848551432291664
 30
0.0
 10
-5.320088704427083
 20
-2.7850151909722221
 30
0.0
 10
-5.2267266167534716
 20
-3.0254828559027773
 30
0.0
 10
-4.9576646592881941
 20
-3.1464057074652776
 30
0.0
 10
-4.7159912109374993
 20
-3.0564887152777773
 30
0.0
  0
SPLINE
  5
AB
100
AcDbEntity
  8
LAYER_1
 62
     7
100
AcDbSpline
210
0.0
220
0.0
230
1.0
 70
     8
 71
     3
 72
    17
 73
    13
 74
     0
 42
0.00000001
 43
0.00000001
 40
0.0
 40
0.0
 40
0.0
 40
0.0
 40
1.0
 40
1.0
 40
1.0
 40
2.0
 40
2.0
 40
2.0
 40
3.0
 40
3.0
 40
3.0
 40
4.0
 40
4.0
 40
4.0
 40
4.0
 10
5.197443305121527
 20
2.4219021267361107
 30
0.0
 10
5.2746134440104164
 20
2.491148546006944
 30
0.0
 10
5.3190551757812496
 20
2.589678276909722
 30
0.0
 10
5.320088704427083
 20
2.6933756510416664
 30
0.0
 10
5.3183661566840277
 20
2.8935356987847221
 30
0.0
 10
5.1564466688368054
 20
3.0554551866319444
 30
0.0
 10
4.9562866210937493
 20
3.0564887152777773
 30
0.0
 10
4.7564710828993055
 20
3.0551106770833329
 30
0.0
 10
4.5950683593749995
 20
2.8931911892361106
 30
0.0
 10
4.5936903211805555
 20
2.6933756510416664
 30
0.0
 10
4.6868801540798604
 20
2.4532524956597221
 30
0.0
 10
4.955769856770833
 20
2.3323296440972219
 30
0.0
 10
5.197443305121527
 20
2.4219021267361107
 30
0.0
  0
ENDBLK
  5
AD
100
AcDbEntity
  8
LAYER_1
100
AcDbBlockEnd
  0
ENDSEC
  0
SECTION
  2
ENTITIES
  0
MTEXT
  5
223
100
AcDbEntity
  8
LAYER_1
 62
     7
100
AcDbMText
 10
80.96629
 20
185.059236
 30
0.0
 40
2.637985
 41
0.0
 71
     1
 72
     2
  1
\W0.50;\fMS Gothic|b0|i0|c128;(40以上)
  7
KANJISTD
210
0.0
220
0.0
230
1.0
 11
1.000001
 21
0.0
 31
0.0
 73
     1
 44
1.0
  0
POLYLINE
  5
21D
100
AcDbEntity
  8
LAYER_1
 62
     7
100
AcDb2dPolyline
 66
     1
 10
0.0
 20
0.0
 30
0.0
  0
VERTEX
  5
21E
100
AcDbEntity
  8
LAYER_1
 62
     7
100
AcDbVertex
100
AcDb2dVertex
 10
61.102214
 20
175.92294
 30
0.0
  0
VERTEX
  5
21F
100
AcDbEntity
  8
LAYER_1
 62
     7
100
AcDbVertex
100
AcDb2dVertex
 10
25.018283
 20
175.92294
 30
0.0
  0
VERTEX
  5
220
100
AcDbEntity
  8
LAYER_1
 62
     7
100
AcDbVertex
100
AcDb2dVertex
 10
25.018283
 20
95.757463
 30
0.0
  0
VERTEX
  5
221
100
AcDbEntity
  8
LAYER_1
 62
     7
100
AcDbVertex
100
AcDb2dVertex
 10
65.216002
 20
95.757463
 30
0.0
  0
SEQEND
  5
222
100
AcDbEntity
  8
LAYER_1
 62
     7
  0
MTEXT
  5
21C
100
AcDbEntity
  8
LAYER_1
 62
     7
100
AcDbMText
 10
4.938889
 20
70.674142
 30
0.0
 40
2.637985
 41
0.0
 71
     1
 72
     2
  1
\W0.50;\fMS Gothic|b0|i0|c128;(数字)は、参考寸法。
  7
KANJISTD
210
0.0
220
0.0
230
1.0
 11
1.000001
 21
0.0
 31
0.0
 73
     1
 44
1.0
  0
MTEXT
  5
21B
100
AcDbEntity
  8
LAYER_1
 62
     7
100
AcDbMText
 10
101.417927
 20
84.700849
 30
0.0
 40
2.637985
 41
0.0
 71
     1
 72
     2
  1
\W0.50;\fMS Gothic|b0|i0|c128;600程度
  7
KANJISTD
210
0.0
220
0.0
230
1.0
 11
1.000001
 21
0.0
 31
0.0
 73
     1
 44
1.0
  0
POLYLINE
  5
215
100
AcDbEntity
  8
LAYER_1
 62
     7
100
AcDb2dPolyline
 66
     1
 10
0.0
 20
0.0
 30
0.0
  0
VERTEX
  5
216
100
AcDbEntity
  8
LAYER_1
 62
     7
100
AcDbVertex
100
AcDb2dVertex
 10
145.611439
 20
100.543389
 30
0.0
  0
VERTEX
  5
217
100
AcDbEntity
  8
LAYER_1
 62
     7
100
AcDbVertex
100
AcDb2dVertex
 10
145.611439
 20
81.710086
 30
0.0
  0
VERTEX
  5
218
100
AcDbEntity
  8
LAYER_1
 62
     7
100
AcDbVertex
100
AcDb2dVertex
 10
68.221159
 20
81.710086
 30
0.0
  0
VERTEX
  5
219
100
AcDbEntity
  8
LAYER_1
 62
     7
100
AcDbVertex
100
AcDb2dVertex
 10
68.221159
 20
89.911825
 30
0.0
  0
SEQEND
  5
21A
100
AcDbEntity
  8
LAYER_1
 62
     7
  0
MTEXT
  5
214
100
AcDbEntity
  8
LAYER_1
 62
     7
100
AcDbMText
 10
70.897654
 20
89.424075
 30
0.0
 40
2.637985
 41
0.0
 71
     1
 72
     2
  1
\W0.50;\fMS Gothic|b0|i0|c128;30以上
  7
KANJISTD
210
0.0
220
0.0
230
1.0
 11
1.000001
 21
0.0
 31
0.0
 73
     1
 44
1.0
  0
LINE
  5
213
100
AcDbEntity
  8
LAYER_1
 62
     7
100
AcDbLine
 10
77.672606
 20
89.911825
 30
0.0
 11
81.674773
 21
89.911825
 31
0.0
  0
POLYLINE
  5
20E
100
AcDbEntity
  8
LAYER_1
 62
     7
100
AcDb2dPolyline
 66
     1
 10
0.0
 20
0.0
 30
0.0
  0
VERTEX
  5
20F
100
AcDbEntity
  8
LAYER_1
 62
     7
100
AcDbVertex
100
AcDb2dVertex
 10
79.603754
 20
89.394716
 30
0.0
  0
VERTEX
  5
210
100
AcDbEntity
  8
LAYER_1
 62
     7
100
AcDbVertex
100
AcDb2dVertex
 10
77.672606
 20
89.911825
 30
0.0
  0
VERTEX
  5
211
100
AcDbEntity
  8
LAYER_1
 62
     7
100
AcDbVertex
100
AcDb2dVertex
 10
79.603754
 20
90.429278
 30
0.0
  0
SEQEND
  5
212
100
AcDbEntity
  8
LAYER_1
 62
     7
  0
LINE
  5
20D
100
AcDbEntity
  8
LAYER_1
 62
     7
100
AcDbLine
 10
68.187397
 20
89.911825
 30
0.0
 11
64.186435
 21
89.911825
 31
0.0
  0
POLYLINE
  5
208
100
AcDbEntity
  8
LAYER_1
 62
     7
100
AcDb2dPolyline
 66
     1
 10
0.0
 20
0.0
 30
0.0
  0
VERTEX
  5
209
100
AcDbEntity
  8
LAYER_1
 62
     7
100
AcDbVertex
100
AcDb2dVertex
 10
66.256421
 20
89.394716
 30
0.0
  0
VERTEX
  5
20A
100
AcDbEntity
  8
LAYER_1
 62
     7
100
AcDbVertex
100
AcDb2dVertex
 10
68.187397
 20
89.911825
 30
0.0
  0
VERTEX
  5
20B
100
AcDbEntity
  8
LAYER_1
 62
     7
100
AcDbVertex
100
AcDb2dVertex
 10
66.256421
 20
90.429278
 30
0.0
  0
SEQEND
  5
20C
100
AcDbEntity
  8
LAYER_1
 62
     7
  0
LINE
  5
207
100
AcDbEntity
  8
LAYER_1
 62
     7
100
AcDbLine
 10
68.231494
 20
103.381803
 30
0.0
 11
68.231494
 21
89.908035
 31
0.0
  0
POLYLINE
  5
202
100
AcDbEntity
  8
LAYER_1
 62
     7
100
AcDb2dPolyline
 66
     1
 10
0.0
 20
0.0
 30
0.0
  0
VERTEX
  5
203
100
AcDbEntity
  8
LAYER_1
 62
     7
100
AcDbVertex
100
AcDb2dVertex
 10
77.82264
 20
103.880998
 30
0.0
  0
VERTEX
  5
204
100
AcDbEntity
  8
LAYER_1
 62
     7
100
AcDbVertex
100
AcDb2dVertex
 10
77.82264
 20
89.908035
 30
0.0
  0
VERTEX
  5
205
100
AcDbEntity
  8
LAYER_1
 62
     7
100
AcDbVertex
100
AcDb2dVertex
 10
68.231494
 20
89.908035
 30
0.0
  0
SEQEND
  5
206
100
AcDbEntity
  8
LAYER_1
 62
     7
  0
SPLINE
  5
201
100
AcDbEntity
  8
LAYER_1
 62
     7
100
AcDbSpline
210
0.0
220
0.0
230
1.0
 70
     8
 71
     3
 72
    17
 73
    13
 74
     0
 42
0.00000001
 43
0.00000001
 40
0.0
 40
0.0
 40
0.0
 40
0.0
 40
1.0
 40
1.0
 40
1.0
 40
2.0
 40
2.0
 40
2.0
 40
3.0
 40
3.0
 40
3.0
 40
4.0
 40
4.0
 40
4.0
 40
4.0
 10
68.888129340277771
 20
166.67923177083333
 30
0.0
 10
68.688141547309016
 20
166.67785373263888
 30
0.0
 10
68.5263943142361
 20
166.51610649956595
 30
0.0
 10
68.525016276041654
 20
166.31611870659719
 30
0.0
 10
68.618206108940967
 20
166.07565104166665
 30
0.0
 10
68.887440321180549
 20
165.95472819010416
 30
0.0
 10
69.129113769531244
 20
166.04447292751735
 30
0.0
 10
69.20611165364582
 20
166.11389160156247
 30
0.0
 10
69.250381130642353
 20
166.21242133246525
 30
0.0
 10
69.251242404513889
 20
166.31611870659719
 30
0.0
 10
69.249864366319443
 20
166.51610649956595
 30
0.0
 10
69.088117133246527
 20
166.67785373263888
 30
0.0
 10
68.888129340277771
 20
166.67923177083333
 30
0.0
  0
MTEXT
  5
200
100
AcDbEntity
  8
LAYER_1
 62
     7
100
AcDbMText
 10
49.365979
 20
154.599597
 30
0.0
 40
2.637985
 41
0.0
 71
     1
 72
     2
  1
\W0.50;\fMS Gothic|b0|i0|c128;押え金物
  7
KANJISTD
210
0.0
220
0.0
230
1.0
 11
1.000001
 21
0.0
 31
0.0
 73
     1
 44
1.0
  0
MTEXT
  5
1FF
100
AcDbEntity
  8
LAYER_1
 62
     7
100
AcDbMText
 10
56.622997
 20
175.839052
 30
0.0
 40
2.637985
 41
0.0
 71
     1
 72
     2
  1
\W0.50;\fMS Gothic|b0|i0|c128;25
  7
STD
210
0.0
220
0.0
230
1.0
 11
0.0
 21
1.0
 31
0.0
 73
     1
 44
1.0
  0
LINE
  5
1FE
100
AcDbEntity
  8
LAYER_1
 62
     7
100
AcDbLine
 10
59.671982
 20
175.897618
 30
0.0
 11
59.671982
 21
171.999665
 31
0.0
  0
POLYLINE
  5
1F9
100
AcDbEntity
  8
LAYER_1
 62
     7
100
AcDb2dPolyline
 66
     1
 10
0.0
 20
0.0
 30
0.0
  0
VERTEX
  5
1FA
100
AcDbEntity
  8
LAYER_1
 62
     7
100
AcDbVertex
100
AcDb2dVertex
 10
65.627346
 20
175.897618
 30
0.0
  0
VERTEX
  5
1FB
100
AcDbEntity
  8
LAYER_1
 62
     7
100
AcDbVertex
100
AcDb2dVertex
 10
59.671982
 20
175.897618
 30
0.0
  0
VERTEX
  5
1FC
100
AcDbEntity
  8
LAYER_1
 62
     7
100
AcDbVertex
100
AcDb2dVertex
 10
59.671982
 20
183.283386
 30
0.0
  0
SEQEND
  5
1FD
100
AcDbEntity
  8
LAYER_1
 62
     7
  0
LINE
  5
1F8
100
AcDbEntity
  8
LAYER_1
 62
     7
100
AcDbLine
 10
79.653708
 20
179.208011
 30
0.0
 11
59.671982
 21
179.208011
 31
0.0
  0
MTEXT
  5
1F7
100
AcDbEntity
  8
LAYER_1
 62
     7
100
AcDbMText
 10
67.449285
 20
213.189647
 30
0.0
 40
2.637985
 41
0.0
 71
     1
 72
     2
  1
\W0.50;\fMS Gothic|b0|i0|c128;(120～150)
  7
KANJISTD
210
0.0
220
0.0
230
1.0
 11
1.000001
 21
0.0
 31
0.0
 73
     1
 44
1.0
  0
POLYLINE
  5
1F2
100
AcDbEntity
  8
LAYER_1
 62
     7
100
AcDb2dPolyline
 66
     1
 10
0.0
 20
0.0
 30
0.0
  0
VERTEX
  5
1F3
100
AcDbEntity
  8
LAYER_1
 62
     7
100
AcDbVertex
100
AcDb2dVertex
 10
66.371832
 20
176.661224
 30
0.0
  0
VERTEX
  5
1F4
100
AcDbEntity
  8
LAYER_1
 62
     7
100
AcDbVertex
100
AcDb2dVertex
 10
66.371832
 20
209.454915
 30
0.0
  0
VERTEX
  5
1F5
100
AcDbEntity
  8
LAYER_1
 62
     7
100
AcDbVertex
100
AcDb2dVertex
 10
84.979137
 20
209.454915
 30
0.0
  0
SEQEND
  5
1F6
100
AcDbEntity
  8
LAYER_1
 62
     7
  0
LINE
  5
1F1
100
AcDbEntity
  8
LAYER_1
 62
     7
100
AcDbLine
 10
85.085763
 20
196.578526
 30
0.0
 11
85.085763
 21
209.454915
 31
0.0
  0
POLYLINE
  5
1EC
100
AcDbEntity
  8
LAYER_1
 62
     7
100
AcDb2dPolyline
 66
     1
 10
0.0
 20
0.0
 30
0.0
  0
VERTEX
  5
1ED
100
AcDbEntity
  8
LAYER_1
 62
     7
100
AcDbVertex
100
AcDb2dVertex
 10
83.148069
 20
180.904548
 30
0.0
  0
VERTEX
  5
1EE
100
AcDbEntity
  8
LAYER_1
 62
     7
100
AcDbVertex
100
AcDb2dVertex
 10
85.077839
 20
181.421657
 30
0.0
  0
VERTEX
  5
1EF
100
AcDbEntity
  8
LAYER_1
 62
     7
100
AcDbVertex
100
AcDb2dVertex
 10
83.148069
 20
181.939971
 30
0.0
  0
SEQEND
  5
1F0
100
AcDbEntity
  8
LAYER_1
 62
     7
  0
LINE
  5
1EB
100
AcDbEntity
  8
LAYER_1
 62
     7
100
AcDbLine
 10
79.280604
 20
181.421657
 30
0.0
 11
85.077839
 21
181.421657
 31
0.0
  0
POLYLINE
  5
1D8
100
AcDbEntity
  8
LAYER_1
 62
     7
100
AcDb2dPolyline
 66
     1
 10
0.0
 20
0.0
 30
0.0
  0
VERTEX
  5
1D9
100
AcDbEntity
  8
LAYER_1
 62
     7
100
AcDbVertex
100
AcDb2dVertex
 10
186.337291
 20
95.873907
 30
0.0
  0
VERTEX
  5
1DA
100
AcDbEntity
  8
LAYER_1
 62
     7
100
AcDbVertex
100
AcDb2dVertex
 10
66.4099
 20
95.873907
 30
0.0
  0
VERTEX
  5
1DB
100
AcDbEntity
  8
LAYER_1
 62
     7
100
AcDbVertex
100
AcDb2dVertex
 10
66.40611
 20
175.832334
 30
0.0
  0
VERTEX
  5
1DC
100
AcDbEntity
  8
LAYER_1
 62
     7
100
AcDbVertex
100
AcDb2dVertex
 10
75.974174
 20
175.832334
 30
0.0
  0
VERTEX
  5
1DD
100
AcDbEntity
  8
LAYER_1
 62
     7
100
AcDbVertex
100
AcDb2dVertex
 10
76.640455
 20
179.165464
 30
0.0
  0
VERTEX
  5
1DE
100
AcDbEntity
  8
LAYER_1
 62
     7
100
AcDbVertex
100
AcDb2dVertex
 10
79.305926
 20
179.165464
 30
0.0
  0
VERTEX
  5
1DF
100
AcDbEntity
  8
LAYER_1
 62
     7
100
AcDbVertex
100
AcDb2dVertex
 10
79.305926
 20
175.832334
 30
0.0
  0
VERTEX
  5
1E0
100
AcDbEntity
  8
LAYER_1
 62
     7
100
AcDbVertex
100
AcDb2dVertex
 10
82.788228
 20
175.836296
 30
0.0
  0
VERTEX
  5
1E1
100
AcDbEntity
  8
LAYER_1
 62
     7
100
AcDbVertex
100
AcDb2dVertex
 10
84.945719
 20
177.992581
 30
0.0
  0
VERTEX
  5
1E2
100
AcDbEntity
  8
LAYER_1
 62
     7
100
AcDbVertex
100
AcDb2dVertex
 10
84.979137
 20
195.853334
 30
0.0
  0
VERTEX
  5
1E3
100
AcDbEntity
  8
LAYER_1
 62
     7
100
AcDbVertex
100
AcDb2dVertex
 10
82.455088
 20
198.688131
 30
0.0
  0
VERTEX
  5
1E4
100
AcDbEntity
  8
LAYER_1
 62
     7
100
AcDbVertex
100
AcDb2dVertex
 10
45.701775
 20
202.022466
 30
0.0
  0
VERTEX
  5
1E5
100
AcDbEntity
  8
LAYER_1
 62
     7
100
AcDbVertex
100
AcDb2dVertex
 10
45.699536
 20
198.525522
 30
0.0
  0
VERTEX
  5
1E6
100
AcDbEntity
  8
LAYER_1
 62
     7
100
AcDbVertex
100
AcDb2dVertex
 10
39.724363
 20
196.559751
 30
0.0
  0
VERTEX
  5
1E7
100
AcDbEntity
  8
LAYER_1
 62
     7
100
AcDbVertex
100
AcDb2dVertex
 10
39.72643
 20
180.670109
 30
0.0
  0
VERTEX
  5
1E8
100
AcDbEntity
  8
LAYER_1
 62
     7
100
AcDbVertex
100
AcDb2dVertex
 10
39.729875
 20
156.162389
 30
0.0
  0
VERTEX
  5
1E9
100
AcDbEntity
  8
LAYER_1
 62
     7
100
AcDbVertex
100
AcDb2dVertex
 10
39.742794
 20
71.327601
 30
0.0
  0
SEQEND
  5
1EA
100
AcDbEntity
  8
LAYER_1
 62
     7
  0
MTEXT
  5
1D7
100
AcDbEntity
  8
LAYER_1
 62
     7
100
AcDbMText
 10
76.107327
 20
184.570033
 30
0.0
 40
2.637985
 41
0.0
 71
     1
 72
     2
  1
\W0.50;\fMS Gothic|b0|i0|c128;20
  7
STD
210
0.0
220
0.0
230
1.0
 11
1.000001
 21
0.0
 31
0.0
 73
     1
 44
1.0
  0
MTEXT
  5
1D6
100
AcDbEntity
  8
LAYER_1
 62
     7
100
AcDbMText
 10
81.828597
 20
171.718793
 30
0.0
 40
2.637985
 41
0.0
 71
     1
 72
     2
  1
\W0.50;\fMS Gothic|b0|i0|c128;25
  7
STD
210
0.0
220
0.0
230
1.0
 11
1.000001
 21
0.0
 31
0.0
 73
     1
 44
1.0
  0
POLYLINE
  5
1D1
100
AcDbEntity
  8
LAYER_1
 62
     7
100
AcDb2dPolyline
 66
     1
 10
0.0
 20
0.0
 30
0.0
  0
VERTEX
  5
1D2
100
AcDbEntity
  8
LAYER_1
 62
     7
100
AcDbVertex
100
AcDb2dVertex
 10
68.302635
 20
208.937807
 30
0.0
  0
VERTEX
  5
1D3
100
AcDbEntity
  8
LAYER_1
 62
     7
100
AcDbVertex
100
AcDb2dVertex
 10
66.371832
 20
209.454915
 30
0.0
  0
VERTEX
  5
1D4
100
AcDbEntity
  8
LAYER_1
 62
     7
100
AcDbVertex
100
AcDb2dVertex
 10
68.302635
 20
209.972024
 30
0.0
  0
SEQEND
  5
1D5
100
AcDbEntity
  8
LAYER_1
 62
     7
  0
POLYLINE
  5
1CC
100
AcDbEntity
  8
LAYER_1
 62
     7
100
AcDb2dPolyline
 66
     1
 10
0.0
 20
0.0
 30
0.0
  0
VERTEX
  5
1CD
100
AcDbEntity
  8
LAYER_1
 62
     7
100
AcDbVertex
100
AcDb2dVertex
 10
81.094275
 20
180.904548
 30
0.0
  0
VERTEX
  5
1CE
100
AcDbEntity
  8
LAYER_1
 62
     7
100
AcDbVertex
100
AcDb2dVertex
 10
79.163299
 20
181.421657
 30
0.0
  0
VERTEX
  5
1CF
100
AcDbEntity
  8
LAYER_1
 62
     7
100
AcDbVertex
100
AcDb2dVertex
 10
81.094275
 20
181.939971
 30
0.0
  0
SEQEND
  5
1D0
100
AcDbEntity
  8
LAYER_1
 62
     7
  0
LINE
  5
1CB
100
AcDbEntity
  8
LAYER_1
 62
     7
100
AcDbLine
 10
79.316606
 20
168.786941
 30
0.0
 11
85.497451
 21
168.786941
 31
0.0
  0
POLYLINE
  5
1C6
100
AcDbEntity
  8
LAYER_1
 62
     7
100
AcDb2dPolyline
 66
     1
 10
0.0
 20
0.0
 30
0.0
  0
VERTEX
  5
1C7
100
AcDbEntity
  8
LAYER_1
 62
     7
100
AcDbVertex
100
AcDb2dVertex
 10
59.154873
 20
173.967159
 30
0.0
  0
VERTEX
  5
1C8
100
AcDbEntity
  8
LAYER_1
 62
     7
100
AcDbVertex
100
AcDb2dVertex
 10
59.671982
 20
175.897618
 30
0.0
  0
VERTEX
  5
1C9
100
AcDbEntity
  8
LAYER_1
 62
     7
100
AcDbVertex
100
AcDb2dVertex
 10
60.189435
 20
173.967159
 30
0.0
  0
SEQEND
  5
1CA
100
AcDbEntity
  8
LAYER_1
 62
     7
  0
POLYLINE
  5
1C1
100
AcDbEntity
  8
LAYER_1
 62
     7
100
AcDb2dPolyline
 66
     1
 10
0.0
 20
0.0
 30
0.0
  0
VERTEX
  5
1C2
100
AcDbEntity
  8
LAYER_1
 62
     7
100
AcDbVertex
100
AcDb2dVertex
 10
59.154873
 20
181.139159
 30
0.0
  0
VERTEX
  5
1C3
100
AcDbEntity
  8
LAYER_1
 62
     7
100
AcDbVertex
100
AcDb2dVertex
 10
59.671982
 20
179.208011
 30
0.0
  0
VERTEX
  5
1C4
100
AcDbEntity
  8
LAYER_1
 62
     7
100
AcDbVertex
100
AcDb2dVertex
 10
60.189435
 20
181.139159
 30
0.0
  0
SEQEND
  5
1C5
100
AcDbEntity
  8
LAYER_1
 62
     7
  0
POLYLINE
  5
1BC
100
AcDbEntity
  8
LAYER_1
 62
     7
100
AcDb2dPolyline
 66
     1
 10
0.0
 20
0.0
 30
0.0
  0
VERTEX
  5
1BD
100
AcDbEntity
  8
LAYER_1
 62
     7
100
AcDbVertex
100
AcDb2dVertex
 10
81.247582
 20
168.269488
 30
0.0
  0
VERTEX
  5
1BE
100
AcDbEntity
  8
LAYER_1
 62
     7
100
AcDbVertex
100
AcDb2dVertex
 10
79.316606
 20
168.786941
 30
0.0
  0
VERTEX
  5
1BF
100
AcDbEntity
  8
LAYER_1
 62
     7
100
AcDbVertex
100
AcDb2dVertex
 10
81.247582
 20
169.304395
 30
0.0
  0
SEQEND
  5
1C0
100
AcDbEntity
  8
LAYER_1
 62
     7
  0
LINE
  5
1BB
100
AcDbEntity
  8
LAYER_1
 62
     7
100
AcDbLine
 10
76.647001
 20
181.421657
 30
0.0
 11
71.239579
 21
181.421657
 31
0.0
  0
POLYLINE
  5
1B6
100
AcDbEntity
  8
LAYER_1
 62
     7
100
AcDb2dPolyline
 66
     1
 10
0.0
 20
0.0
 30
0.0
  0
VERTEX
  5
1B7
100
AcDbEntity
  8
LAYER_1
 62
     7
100
AcDbVertex
100
AcDb2dVertex
 10
83.047989
 20
208.937807
 30
0.0
  0
VERTEX
  5
1B8
100
AcDbEntity
  8
LAYER_1
 62
     7
100
AcDbVertex
100
AcDb2dVertex
 10
84.979137
 20
209.454915
 30
0.0
  0
VERTEX
  5
1B9
100
AcDbEntity
  8
LAYER_1
 62
     7
100
AcDbVertex
100
AcDb2dVertex
 10
83.047989
 20
209.972024
 30
0.0
  0
SEQEND
  5
1BA
100
AcDbEntity
  8
LAYER_1
 62
     7
  0
POLYLINE
  5
1B1
100
AcDbEntity
  8
LAYER_1
 62
     7
100
AcDb2dPolyline
 66
     1
 10
0.0
 20
0.0
 30
0.0
  0
VERTEX
  5
1B2
100
AcDbEntity
  8
LAYER_1
 62
     7
100
AcDbVertex
100
AcDb2dVertex
 10
74.715508
 20
180.904548
 30
0.0
  0
VERTEX
  5
1B3
100
AcDbEntity
  8
LAYER_1
 62
     7
100
AcDbVertex
100
AcDb2dVertex
 10
76.647001
 20
181.421657
 30
0.0
  0
VERTEX
  5
1B4
100
AcDbEntity
  8
LAYER_1
 62
     7
100
AcDbVertex
100
AcDb2dVertex
 10
74.715508
 20
181.939971
 30
0.0
  0
SEQEND
  5
1B5
100
AcDbEntity
  8
LAYER_1
 62
     7
  0
LINE
  5
1B0
100
AcDbEntity
  8
LAYER_1
 62
     7
100
AcDbLine
 10
76.015515
 20
168.786941
 30
0.0
 11
71.597869
 21
168.786941
 31
0.0
  0
POLYLINE
  5
1AA
100
AcDbEntity
  8
LAYER_1
 62
     7
100
AcDb2dPolyline
 66
     1
 10
0.0
 20
0.0
 30
0.0
  0
VERTEX
  5
1AB
100
AcDbEntity
  8
LAYER_1
 62
     7
100
AcDbVertex
100
AcDb2dVertex
 10
79.316606
 20
175.251318
 30
0.0
  0
VERTEX
  5
1AC
100
AcDbEntity
  8
LAYER_1
 62
     7
100
AcDbVertex
100
AcDb2dVertex
 10
79.316606
 20
168.786941
 30
0.0
  0
VERTEX
  5
1AD
100
AcDbEntity
  8
LAYER_1
 62
     7
100
AcDbVertex
100
AcDb2dVertex
 10
76.015515
 20
168.786941
 30
0.0
  0
VERTEX
  5
1AE
100
AcDbEntity
  8
LAYER_1
 62
     7
100
AcDbVertex
100
AcDb2dVertex
 10
76.015515
 20
175.192579
 30
0.0
  0
SEQEND
  5
1AF
100
AcDbEntity
  8
LAYER_1
 62
     7
  0
POLYLINE
  5
1A4
100
AcDbEntity
  8
LAYER_1
 62
     7
100
AcDb2dPolyline
 66
     1
 10
0.0
 20
0.0
 30
0.0
  0
VERTEX
  5
1A5
100
AcDbEntity
  8
LAYER_1
 62
     7
100
AcDbVertex
100
AcDb2dVertex
 10
79.280604
 20
179.399902
 30
0.0
  0
VERTEX
  5
1A6
100
AcDbEntity
  8
LAYER_1
 62
     7
100
AcDbVertex
100
AcDb2dVertex
 10
79.280604
 20
181.421657
 30
0.0
  0
VERTEX
  5
1A7
100
AcDbEntity
  8
LAYER_1
 62
     7
100
AcDbVertex
100
AcDb2dVertex
 10
76.647001
 20
181.421657
 30
0.0
  0
VERTEX
  5
1A8
100
AcDbEntity
  8
LAYER_1
 62
     7
100
AcDbVertex
100
AcDb2dVertex
 10
76.647001
 20
179.399902
 30
0.0
  0
SEQEND
  5
1A9
100
AcDbEntity
  8
LAYER_1
 62
     7
  0
LINE
  5
1A3
100
AcDbEntity
  8
LAYER_1
 62
     7
100
AcDbLine
 10
95.291513
 20
177.339563
 30
0.0
 11
95.291513
 21
189.944306
 31
0.0
  0
LINE
  5
1A2
100
AcDbEntity
  8
LAYER_1
 62
     7
100
AcDbLine
 10
161.125393
 20
202.425026
 30
0.0
 11
161.125393
 21
207.651752
 31
0.0
  0
LINE
  5
1A1
100
AcDbEntity
  8
LAYER_1
 62
     7
100
AcDbLine
 10
147.337432
 20
114.999699
 30
0.0
 11
151.879102
 21
114.999699
 31
0.0
  0
POLYLINE
  5
19C
100
AcDbEntity
  8
LAYER_1
 62
     7
100
AcDb2dPolyline
 66
     1
 10
0.0
 20
0.0
 30
0.0
  0
VERTEX
  5
19D
100
AcDbEntity
  8
LAYER_1
 62
     7
100
AcDbVertex
100
AcDb2dVertex
 10
149.268408
 20
114.482246
 30
0.0
  0
VERTEX
  5
19E
100
AcDbEntity
  8
LAYER_1
 62
     7
100
AcDbVertex
100
AcDb2dVertex
 10
147.337432
 20
114.999699
 30
0.0
  0
VERTEX
  5
19F
100
AcDbEntity
  8
LAYER_1
 62
     7
100
AcDbVertex
100
AcDb2dVertex
 10
149.268408
 20
115.517152
 30
0.0
  0
SEQEND
  5
1A0
100
AcDbEntity
  8
LAYER_1
 62
     7
  0
LINE
  5
19B
100
AcDbEntity
  8
LAYER_1
 62
     7
100
AcDbLine
 10
143.836182
 20
115.09754
 30
0.0
 11
139.294512
 21
115.09754
 31
0.0
  0
LINE
  5
19A
100
AcDbEntity
  8
LAYER_1
 62
     7
100
AcDbLine
 10
175.719851
 20
129.926953
 30
0.0
 11
178.070785
 21
129.926953
 31
0.0
  0
LINE
  5
199
100
AcDbEntity
  8
LAYER_1
 62
     7
100
AcDbLine
 10
175.719851
 20
124.596012
 30
0.0
 11
178.070785
 21
124.596012
 31
0.0
  0
POLYLINE
  5
194
100
AcDbEntity
  8
LAYER_1
 62
     7
100
AcDb2dPolyline
 66
     1
 10
0.0
 20
0.0
 30
0.0
  0
VERTEX
  5
195
100
AcDbEntity
  8
LAYER_1
 62
     7
100
AcDbVertex
100
AcDb2dVertex
 10
175.719851
 20
96.801671
 30
0.0
  0
VERTEX
  5
196
100
AcDbEntity
  8
LAYER_1
 62
     7
100
AcDbVertex
100
AcDb2dVertex
 10
175.719851
 20
135.257549
 30
0.0
  0
VERTEX
  5
197
100
AcDbEntity
  8
LAYER_1
 62
     7
100
AcDbVertex
100
AcDb2dVertex
 10
178.070785
 20
135.257549
 30
0.0
  0
SEQEND
  5
198
100
AcDbEntity
  8
LAYER_1
 62
     7
  0
SPLINE
  5
193
100
AcDbEntity
  8
LAYER_1
 62
     7
100
AcDbSpline
210
0.0
220
0.0
230
1.0
 70
     8
 71
     3
 72
    17
 73
    13
 74
     0
 42
0.00000001
 43
0.00000001
 40
0.0
 40
0.0
 40
0.0
 40
0.0
 40
1.0
 40
1.0
 40
1.0
 40
2.0
 40
2.0
 40
2.0
 40
3.0
 40
3.0
 40
3.0
 40
4.0
 40
4.0
 40
4.0
 40
4.0
 10
142.92736545138888
 20
102.20909288194443
 30
0.0
 10
142.74374186197915
 20
102.21047092013887
 30
0.0
 10
142.59525824652778
 20
102.35861002604166
 30
0.0
 10
142.59422471788193
 20
102.54223361545138
 30
0.0
 10
142.68448621961804
 20
102.76306423611111
 30
0.0
 10
142.93563368055555
 20
102.87020670572916
 30
0.0
 10
143.15784233940971
 20
102.78304578993054
 30
0.0
 10
143.2229546440972
 20
102.71965603298611
 30
0.0
 10
143.25981716579861
 20
102.6328396267361
 30
0.0
 10
143.26050618489583
 20
102.54223361545138
 30
0.0
 10
143.25912814670139
 20
102.35861002604166
 30
0.0
 10
143.11064453124999
 20
102.21047092013887
 30
0.0
 10
142.92736545138888
 20
102.20909288194443
 30
0.0
  0
SPLINE
  5
192
100
AcDbEntity
  8
LAYER_1
 62
     7
100
AcDbSpline
210
0.0
220
0.0
230
1.0
 70
     8
 71
     3
 72
    17
 73
    13
 74
     0
 42
0.00000001
 43
0.00000001
 40
0.0
 40
0.0
 40
0.0
 40
0.0
 40
1.0
 40
1.0
 40
1.0
 40
2.0
 40
2.0
 40
2.0
 40
3.0
 40
3.0
 40
3.0
 40
4.0
 40
4.0
 40
4.0
 40
4.0
 10
145.16116536458333
 20
106.82242024739583
 30
0.0
 10
144.97754177517359
 20
106.82379828559027
 30
0.0
 10
144.82905815972222
 20
106.97228190104165
 30
0.0
 10
144.82768012152778
 20
107.15590549045137
 30
0.0
 10
144.91794162326389
 20
107.37639160156249
 30
0.0
 10
145.16840006510415
 20
107.48387858072915
 30
0.0
 10
145.39026421440971
 20
107.39706217447916
 30
0.0
 10
145.45572102864583
 20
107.33367241753471
 30
0.0
 10
145.49327256944443
 20
107.24685601128471
 30
0.0
 10
145.49430609809028
 20
107.15590549045137
 30
0.0
 10
145.49292805989583
 20
106.97228190104165
 30
0.0
 10
145.34444444444443
 20
106.82379828559027
 30
0.0
 10
145.16116536458333
 20
106.82242024739583
 30
0.0
  0
SPLINE
  5
191
100
AcDbEntity
  8
LAYER_1
 62
     7
100
AcDbSpline
210
0.0
220
0.0
230
1.0
 70
     8
 71
     3
 72
    17
 73
    13
 74
     0
 42
0.00000001
 43
0.00000001
 40
0.0
 40
0.0
 40
0.0
 40
0.0
 40
1.0
 40
1.0
 40
1.0
 40
2.0
 40
2.0
 40
2.0
 40
3.0
 40
3.0
 40
3.0
 40
4.0
 40
4.0
 40
4.0
 40
4.0
 10
175.71985134548609
 20
102.21908365885416
 30
0.0
 10
175.53622775607639
 20
102.22046169704861
 30
0.0
 10
175.38808865017359
 20
102.36894531249999
 30
0.0
 10
175.38636610243054
 20
102.5522243923611
 30
0.0
 10
175.47697211371525
 20
102.77339952256943
 30
0.0
 10
175.72811957465277
 20
102.88054199218749
 30
0.0
 10
175.95032823350692
 20
102.79372558593749
 30
0.0
 10
176.01509602864581
 20
102.72999131944444
 30
0.0
 10
176.05230305989582
 20
102.64317491319443
 30
0.0
 10
176.05299207899304
 20
102.5522243923611
 30
0.0
 10
176.0516140407986
 20
102.36894531249999
 30
0.0
 10
175.9031304253472
 20
102.22046169704861
 30
0.0
 10
175.71985134548609
 20
102.21908365885416
 30
0.0
  0
SPLINE
  5
190
100
AcDbEntity
  8
LAYER_1
 62
     7
100
AcDbSpline
210
0.0
220
0.0
230
1.0
 70
     8
 71
     3
 72
    17
 73
    13
 74
     0
 42
0.00000001
 43
0.00000001
 40
0.0
 40
0.0
 40
0.0
 40
0.0
 40
1.0
 40
1.0
 40
1.0
 40
2.0
 40
2.0
 40
2.0
 40
3.0
 40
3.0
 40
3.0
 40
4.0
 40
4.0
 40
4.0
 40
4.0
 10
175.71985134548609
 20
98.011588541666654
 30
0.0
 10
175.53622775607639
 20
98.0129665798611
 30
0.0
 10
175.38774414062499
 20
98.161105685763886
 30
0.0
 10
175.38636610243054
 20
98.344729275173606
 30
0.0
 10
175.47697211371525
 20
98.565559895833331
 30
0.0
 10
175.72811957465277
 20
98.673046874999997
 30
0.0
 10
175.95032823350692
 20
98.585541449652766
 30
0.0
 10
176.01509602864581
 20
98.52215169270832
 30
0.0
 10
176.05230305989582
 20
98.435335286458326
 30
0.0
 10
176.05299207899304
 20
98.344729275173606
 30
0.0
 10
176.0516140407986
 20
98.161105685763886
 30
0.0
 10
175.9031304253472
 20
98.0129665798611
 30
0.0
 10
175.71985134548609
 20
98.011588541666654
 30
0.0
  0
SPLINE
  5
18F
100
AcDbEntity
  8
LAYER_1
 62
     7
100
AcDbSpline
210
0.0
220
0.0
230
1.0
 70
     8
 71
     3
 72
    17
 73
    13
 74
     0
 42
0.00000001
 43
0.00000001
 40
0.0
 40
0.0
 40
0.0
 40
0.0
 40
1.0
 40
1.0
 40
1.0
 40
2.0
 40
2.0
 40
2.0
 40
3.0
 40
3.0
 40
3.0
 40
4.0
 40
4.0
 40
4.0
 40
4.0
 10
175.71985134548609
 20
96.468530273437494
 30
0.0
 10
175.53622775607639
 20
96.46990831163194
 30
0.0
 10
175.38774414062499
 20
96.618391927083323
 30
0.0
 10
175.38636610243054
 20
96.802015516493043
 30
0.0
 10
175.47697211371525
 20
97.022846137152769
 30
0.0
 10
175.72811957465277
 20
97.130333116319434
 30
0.0
 10
175.95032823350692
 20
97.042827690972217
 30
0.0
 10
176.01509602864581
 20
96.979437934027771
 30
0.0
 10
176.05230305989582
 20
96.892621527777763
 30
0.0
 10
176.05299207899304
 20
96.802015516493043
 30
0.0
 10
176.0516140407986
 20
96.618391927083323
 30
0.0
 10
175.9031304253472
 20
96.46990831163194
 30
0.0
 10
175.71985134548609
 20
96.468530273437494
 30
0.0
  0
POLYLINE
  5
18A
100
AcDbEntity
  8
LAYER_1
 62
     7
100
AcDb2dPolyline
 66
     1
 10
0.0
 20
0.0
 30
0.0
  0
VERTEX
  5
18B
100
AcDbEntity
  8
LAYER_1
 62
     7
100
AcDbVertex
100
AcDb2dVertex
 10
68.978219
 20
166.583114
 30
0.0
  0
VERTEX
  5
18C
100
AcDbEntity
  8
LAYER_1
 62
     7
100
AcDbVertex
100
AcDb2dVertex
 10
61.23106
 20
153.032347
 30
0.0
  0
VERTEX
  5
18D
100
AcDbEntity
  8
LAYER_1
 62
     7
100
AcDbVertex
100
AcDb2dVertex
 10
58.958331
 20
153.032347
 30
0.0
  0
SEQEND
  5
18E
100
AcDbEntity
  8
LAYER_1
 62
     7
  0
POLYLINE
  5
185
100
AcDbEntity
  8
LAYER_1
 62
     7
100
AcDb2dPolyline
 66
     1
 10
0.0
 20
0.0
 30
0.0
  0
VERTEX
  5
186
100
AcDbEntity
  8
LAYER_1
 62
     7
100
AcDbVertex
100
AcDb2dVertex
 10
79.400494
 20
177.973977
 30
0.0
  0
VERTEX
  5
187
100
AcDbEntity
  8
LAYER_1
 62
     7
100
AcDbVertex
100
AcDb2dVertex
 10
59.898842
 20
212.446809
 30
0.0
  0
VERTEX
  5
188
100
AcDbEntity
  8
LAYER_1
 62
     7
100
AcDbVertex
100
AcDb2dVertex
 10
57.626112
 20
212.446809
 30
0.0
  0
SEQEND
  5
189
100
AcDbEntity
  8
LAYER_1
 62
     7
  0
SPLINE
  5
184
100
AcDbEntity
  8
LAYER_1
 62
     7
100
AcDbSpline
210
0.0
220
0.0
230
1.0
 70
     8
 71
     3
 72
    17
 73
    13
 74
     0
 42
0.00000001
 43
0.00000001
 40
0.0
 40
0.0
 40
0.0
 40
0.0
 40
1.0
 40
1.0
 40
1.0
 40
2.0
 40
2.0
 40
2.0
 40
3.0
 40
3.0
 40
3.0
 40
4.0
 40
4.0
 40
4.0
 40
4.0
 10
79.448552788628461
 20
177.59553358289929
 30
0.0
 10
79.24856499565972
 20
177.59656711154511
 30
0.0
 10
79.086473253038193
 20
177.75796983506942
 30
0.0
 10
79.084578450520823
 20
177.95795762803817
 30
0.0
 10
79.178112792968747
 20
178.19876980251735
 30
0.0
 10
79.44769151475694
 20
178.31986490885416
 30
0.0
 10
79.689709472656247
 20
178.22994791666665
 30
0.0
 10
79.766362847222211
 20
178.1601847330729
 30
0.0
 10
79.810287814670133
 20
178.06165500217011
 30
0.0
 10
79.810976833767356
 20
177.95795762803817
 30
0.0
 10
79.80959879557291
 20
177.75831434461804
 30
0.0
 10
79.648023817274293
 20
177.59691162109374
 30
0.0
 10
79.448552788628461
 20
177.59553358289929
 30
0.0
  0
POLYLINE
  5
17F
100
AcDbEntity
  8
LAYER_1
 62
     7
100
AcDb2dPolyline
 66
     1
 10
0.0
 20
0.0
 30
0.0
  0
VERTEX
  5
180
100
AcDbEntity
  8
LAYER_1
 62
     7
100
AcDbVertex
100
AcDb2dVertex
 10
68.792011
 20
173.008389
 30
0.0
  0
VERTEX
  5
181
100
AcDbEntity
  8
LAYER_1
 62
     7
100
AcDbVertex
100
AcDb2dVertex
 10
49.29122
 20
207.48122
 30
0.0
  0
VERTEX
  5
182
100
AcDbEntity
  8
LAYER_1
 62
     7
100
AcDbVertex
100
AcDb2dVertex
 10
47.018319
 20
207.48122
 30
0.0
  0
SEQEND
  5
183
100
AcDbEntity
  8
LAYER_1
 62
     7
  0
SPLINE
  5
17E
100
AcDbEntity
  8
LAYER_1
 62
     7
100
AcDbSpline
210
0.0
220
0.0
230
1.0
 70
     8
 71
     3
 72
    17
 73
    13
 74
     0
 42
0.00000001
 43
0.00000001
 40
0.0
 40
0.0
 40
0.0
 40
0.0
 40
1.0
 40
1.0
 40
1.0
 40
2.0
 40
2.0
 40
2.0
 40
3.0
 40
3.0
 40
3.0
 40
4.0
 40
4.0
 40
4.0
 40
4.0
 10
68.840414767795139
 20
172.62925618489581
 30
0.0
 10
68.64025472005207
 20
172.63063422309025
 30
0.0
 10
68.478679741753467
 20
172.79238145616318
 30
0.0
 10
68.477129448784723
 20
172.99236924913194
 30
0.0
 10
68.57049153645832
 20
173.23283691406249
 30
0.0
 10
68.839381239149304
 20
173.3539320203993
 30
0.0
 10
69.081226942274299
 20
173.26401502821179
 30
0.0
 10
69.158224826388889
 20
173.19459635416666
 30
0.0
 10
69.20266655815972
 20
173.09606662326388
 30
0.0
 10
69.203527832031241
 20
172.99236924913194
 30
0.0
 10
69.201977539062497
 20
172.79238145616318
 30
0.0
 10
69.04040256076388
 20
172.63063422309025
 30
0.0
 10
68.840414767795139
 20
172.62925618489581
 30
0.0
  0
POLYLINE
  5
179
100
AcDbEntity
  8
LAYER_1
 62
     7
100
AcDb2dPolyline
 66
     1
 10
0.0
 20
0.0
 30
0.0
  0
VERTEX
  5
17A
100
AcDbEntity
  8
LAYER_1
 62
     7
100
AcDbVertex
100
AcDb2dVertex
 10
59.906249
 20
201.030968
 30
0.0
  0
VERTEX
  5
17B
100
AcDbEntity
  8
LAYER_1
 62
     7
100
AcDbVertex
100
AcDb2dVertex
 10
69.23195
 20
216.976592
 30
0.0
  0
VERTEX
  5
17C
100
AcDbEntity
  8
LAYER_1
 62
     7
100
AcDbVertex
100
AcDb2dVertex
 10
71.504507
 20
216.976592
 30
0.0
  0
SEQEND
  5
17D
100
AcDbEntity
  8
LAYER_1
 62
     7
  0
SPLINE
  5
178
100
AcDbEntity
  8
LAYER_1
 62
     7
100
AcDbSpline
210
0.0
220
0.0
230
1.0
 70
     8
 71
     3
 72
    17
 73
    13
 74
     0
 42
0.00000001
 43
0.00000001
 40
0.0
 40
0.0
 40
0.0
 40
0.0
 40
1.0
 40
1.0
 40
1.0
 40
2.0
 40
2.0
 40
2.0
 40
3.0
 40
3.0
 40
3.0
 40
4.0
 40
4.0
 40
4.0
 40
4.0
 10
60.0988294813368
 20
200.74313015407984
 30
0.0
 10
60.175827365451383
 20
200.81254882812499
 30
0.0
 10
60.220096842447909
 20
200.91125081380207
 30
0.0
 10
60.221130371093743
 20
201.01494818793401
 30
0.0
 10
60.219924587673603
 20
201.21510823567706
 30
0.0
 10
60.058005099826381
 20
201.37719997829859
 30
0.0
 10
59.857845052083327
 20
201.37875027126734
 30
0.0
 10
59.657685004340273
 20
201.37719997829859
 30
0.0
 10
59.495937771267357
 20
201.21510823567706
 30
0.0
 10
59.494731987847217
 20
201.01494818793401
 30
0.0
 10
59.587921820746523
 20
200.77448052300346
 30
0.0
 10
59.856983778211799
 20
200.65338541666665
 30
0.0
 10
60.0988294813368
 20
200.74313015407984
 30
0.0
  0
SPLINE
  5
177
100
AcDbEntity
  8
LAYER_1
 62
     7
100
AcDbSpline
210
0.0
220
0.0
230
1.0
 70
     8
 71
     3
 72
    17
 73
    13
 74
     0
 42
0.00000001
 43
0.00000001
 40
0.0
 40
0.0
 40
0.0
 40
0.0
 40
1.0
 40
1.0
 40
1.0
 40
2.0
 40
2.0
 40
2.0
 40
3.0
 40
3.0
 40
3.0
 40
4.0
 40
4.0
 40
4.0
 40
4.0
 10
78.287727864583331
 20
137.72596028645833
 30
0.0
 10
78.36489800347222
 20
137.79555121527775
 30
0.0
 10
78.409339735243051
 20
137.89408094618054
 30
0.0
 10
78.410373263888886
 20
137.99777832031248
 30
0.0
 10
78.408650716145829
 20
138.19793836805553
 30
0.0
 10
78.246558973524301
 20
138.35985785590276
 30
0.0
 10
78.046398925781247
 20
138.36123589409721
 30
0.0
 10
77.846583387586804
 20
138.35951334635416
 30
0.0
 10
77.6851806640625
 20
138.19759385850693
 30
0.0
 10
77.683974880642353
 20
137.99777832031248
 30
0.0
 10
77.776992458767353
 20
137.75765516493055
 30
0.0
 10
78.045882161458323
 20
137.63638780381945
 30
0.0
 10
78.287727864583331
 20
137.72596028645833
 30
0.0
  0
POLYLINE
  5
172
100
AcDbEntity
  8
LAYER_1
 62
     7
100
AcDb2dPolyline
 66
     1
 10
0.0
 20
0.0
 30
0.0
  0
VERTEX
  5
173
100
AcDbEntity
  8
LAYER_1
 62
     7
100
AcDbVertex
100
AcDb2dVertex
 10
69.603848
 20
106.230897
 30
0.0
  0
VERTEX
  5
174
100
AcDbEntity
  8
LAYER_1
 62
     7
100
AcDbVertex
100
AcDb2dVertex
 10
88.478665
 20
139.008914
 30
0.0
  0
VERTEX
  5
175
100
AcDbEntity
  8
LAYER_1
 62
     7
100
AcDbVertex
100
AcDb2dVertex
 10
90.75105
 20
139.008914
 30
0.0
  0
SEQEND
  5
176
100
AcDbEntity
  8
LAYER_1
 62
     7
  0
POLYLINE
  5
16D
100
AcDbEntity
  8
LAYER_1
 62
     7
100
AcDb2dPolyline
 66
     1
 10
0.0
 20
0.0
 30
0.0
  0
VERTEX
  5
16E
100
AcDbEntity
  8
LAYER_1
 62
     7
100
AcDbVertex
100
AcDb2dVertex
 10
77.939773
 20
106.622605
 30
0.0
  0
VERTEX
  5
16F
100
AcDbEntity
  8
LAYER_1
 62
     7
100
AcDbVertex
100
AcDb2dVertex
 10
89.143741
 20
126.03055
 30
0.0
  0
VERTEX
  5
170
100
AcDbEntity
  8
LAYER_1
 62
     7
100
AcDbVertex
100
AcDb2dVertex
 10
91.417331
 20
126.03055
 30
0.0
  0
SEQEND
  5
171
100
AcDbEntity
  8
LAYER_1
 62
     7
  0
POLYLINE
  5
168
100
AcDbEntity
  8
LAYER_1
 62
     7
100
AcDb2dPolyline
 66
     1
 10
0.0
 20
0.0
 30
0.0
  0
VERTEX
  5
169
100
AcDbEntity
  8
LAYER_1
 62
     7
100
AcDbVertex
100
AcDb2dVertex
 10
78.198328
 20
138.034296
 30
0.0
  0
VERTEX
  5
16A
100
AcDbEntity
  8
LAYER_1
 62
     7
100
AcDbVertex
100
AcDb2dVertex
 10
89.402295
 20
157.442414
 30
0.0
  0
VERTEX
  5
16B
100
AcDbEntity
  8
LAYER_1
 62
     7
100
AcDbVertex
100
AcDb2dVertex
 10
91.675886
 20
157.442414
 30
0.0
  0
SEQEND
  5
16C
100
AcDbEntity
  8
LAYER_1
 62
     7
  0
POLYLINE
  5
163
100
AcDbEntity
  8
LAYER_1
 62
     7
100
AcDb2dPolyline
 66
     1
 10
0.0
 20
0.0
 30
0.0
  0
VERTEX
  5
164
100
AcDbEntity
  8
LAYER_1
 62
     7
100
AcDbVertex
100
AcDb2dVertex
 10
79.549666
 20
111.617993
 30
0.0
  0
VERTEX
  5
165
100
AcDbEntity
  8
LAYER_1
 62
     7
100
AcDbVertex
100
AcDb2dVertex
 10
90.755012
 20
131.025939
 30
0.0
  0
VERTEX
  5
166
100
AcDbEntity
  8
LAYER_1
 62
     7
100
AcDbVertex
100
AcDb2dVertex
 10
93.027224
 20
131.025939
 30
0.0
  0
SEQEND
  5
167
100
AcDbEntity
  8
LAYER_1
 62
     7
  0
POLYLINE
  5
15E
100
AcDbEntity
  8
LAYER_1
 62
     7
100
AcDb2dPolyline
 66
     1
 10
0.0
 20
0.0
 30
0.0
  0
VERTEX
  5
15F
100
AcDbEntity
  8
LAYER_1
 62
     7
100
AcDbVertex
100
AcDb2dVertex
 10
120.352688
 20
106.643964
 30
0.0
  0
VERTEX
  5
160
100
AcDbEntity
  8
LAYER_1
 62
     7
100
AcDbVertex
100
AcDb2dVertex
 10
120.869797
 20
108.57494
 30
0.0
  0
VERTEX
  5
161
100
AcDbEntity
  8
LAYER_1
 62
     7
100
AcDbVertex
100
AcDb2dVertex
 10
121.386906
 20
106.643964
 30
0.0
  0
SEQEND
  5
162
100
AcDbEntity
  8
LAYER_1
 62
     7
  0
POLYLINE
  5
159
100
AcDbEntity
  8
LAYER_1
 62
     7
100
AcDb2dPolyline
 66
     1
 10
0.0
 20
0.0
 30
0.0
  0
VERTEX
  5
15A
100
AcDbEntity
  8
LAYER_1
 62
     7
100
AcDbVertex
100
AcDb2dVertex
 10
120.355444
 20
99.821986
 30
0.0
  0
VERTEX
  5
15B
100
AcDbEntity
  8
LAYER_1
 62
     7
100
AcDbVertex
100
AcDb2dVertex
 10
120.872553
 20
97.89101
 30
0.0
  0
VERTEX
  5
15C
100
AcDbEntity
  8
LAYER_1
 62
     7
100
AcDbVertex
100
AcDb2dVertex
 10
121.39104
 20
99.821986
 30
0.0
  0
SEQEND
  5
15D
100
AcDbEntity
  8
LAYER_1
 62
     7
  0
POLYLINE
  5
154
100
AcDbEntity
  8
LAYER_1
 62
     7
100
AcDb2dPolyline
 66
     1
 10
0.0
 20
0.0
 30
0.0
  0
VERTEX
  5
155
100
AcDbEntity
  8
LAYER_1
 62
     7
100
AcDbVertex
100
AcDb2dVertex
 10
86.314456
 20
102.304522
 30
0.0
  0
VERTEX
  5
156
100
AcDbEntity
  8
LAYER_1
 62
     7
100
AcDbVertex
100
AcDb2dVertex
 10
86.831565
 20
104.235498
 30
0.0
  0
VERTEX
  5
157
100
AcDbEntity
  8
LAYER_1
 62
     7
100
AcDbVertex
100
AcDb2dVertex
 10
87.348674
 20
102.304522
 30
0.0
  0
SEQEND
  5
158
100
AcDbEntity
  8
LAYER_1
 62
     7
  0
POLYLINE
  5
14F
100
AcDbEntity
  8
LAYER_1
 62
     7
100
AcDb2dPolyline
 66
     1
 10
0.0
 20
0.0
 30
0.0
  0
VERTEX
  5
150
100
AcDbEntity
  8
LAYER_1
 62
     7
100
AcDbVertex
100
AcDb2dVertex
 10
24.50083
 20
97.688439
 30
0.0
  0
VERTEX
  5
151
100
AcDbEntity
  8
LAYER_1
 62
     7
100
AcDbVertex
100
AcDb2dVertex
 10
25.018283
 20
95.757463
 30
0.0
  0
VERTEX
  5
152
100
AcDbEntity
  8
LAYER_1
 62
     7
100
AcDbVertex
100
AcDb2dVertex
 10
25.535565
 20
97.688439
 30
0.0
  0
SEQEND
  5
153
100
AcDbEntity
  8
LAYER_1
 62
     7
  0
POLYLINE
  5
14A
100
AcDbEntity
  8
LAYER_1
 62
     7
100
AcDb2dPolyline
 66
     1
 10
0.0
 20
0.0
 30
0.0
  0
VERTEX
  5
14B
100
AcDbEntity
  8
LAYER_1
 62
     7
100
AcDbVertex
100
AcDb2dVertex
 10
86.345117
 20
110.739494
 30
0.0
  0
VERTEX
  5
14C
100
AcDbEntity
  8
LAYER_1
 62
     7
100
AcDbVertex
100
AcDb2dVertex
 10
86.862226
 20
108.808173
 30
0.0
  0
VERTEX
  5
14D
100
AcDbEntity
  8
LAYER_1
 62
     7
100
AcDbVertex
100
AcDb2dVertex
 10
87.379335
 20
110.739494
 30
0.0
  0
SEQEND
  5
14E
100
AcDbEntity
  8
LAYER_1
 62
     7
  0
POLYLINE
  5
145
100
AcDbEntity
  8
LAYER_1
 62
     7
100
AcDb2dPolyline
 66
     1
 10
0.0
 20
0.0
 30
0.0
  0
VERTEX
  5
146
100
AcDbEntity
  8
LAYER_1
 62
     7
100
AcDbVertex
100
AcDb2dVertex
 10
70.151963
 20
81.192632
 30
0.0
  0
VERTEX
  5
147
100
AcDbEntity
  8
LAYER_1
 62
     7
100
AcDbVertex
100
AcDb2dVertex
 10
68.221159
 20
81.710086
 30
0.0
  0
VERTEX
  5
148
100
AcDbEntity
  8
LAYER_1
 62
     7
100
AcDbVertex
100
AcDb2dVertex
 10
70.151963
 20
82.227195
 30
0.0
  0
SEQEND
  5
149
100
AcDbEntity
  8
LAYER_1
 62
     7
  0
POLYLINE
  5
140
100
AcDbEntity
  8
LAYER_1
 62
     7
100
AcDb2dPolyline
 66
     1
 10
0.0
 20
0.0
 30
0.0
  0
VERTEX
  5
141
100
AcDbEntity
  8
LAYER_1
 62
     7
100
AcDbVertex
100
AcDb2dVertex
 10
44.325115
 20
159.382003
 30
0.0
  0
VERTEX
  5
142
100
AcDbEntity
  8
LAYER_1
 62
     7
100
AcDbVertex
100
AcDb2dVertex
 10
42.394139
 20
159.899628
 30
0.0
  0
VERTEX
  5
143
100
AcDbEntity
  8
LAYER_1
 62
     7
100
AcDbVertex
100
AcDb2dVertex
 10
44.325115
 20
160.416737
 30
0.0
  0
SEQEND
  5
144
100
AcDbEntity
  8
LAYER_1
 62
     7
  0
POLYLINE
  5
13B
100
AcDbEntity
  8
LAYER_1
 62
     7
100
AcDb2dPolyline
 66
     1
 10
0.0
 20
0.0
 30
0.0
  0
VERTEX
  5
13C
100
AcDbEntity
  8
LAYER_1
 62
     7
100
AcDbVertex
100
AcDb2dVertex
 10
37.524841
 20
159.366155
 30
0.0
  0
VERTEX
  5
13D
100
AcDbEntity
  8
LAYER_1
 62
     7
100
AcDbVertex
100
AcDb2dVertex
 10
39.455645
 20
159.883609
 30
0.0
  0
VERTEX
  5
13E
100
AcDbEntity
  8
LAYER_1
 62
     7
100
AcDbVertex
100
AcDb2dVertex
 10
37.524841
 20
160.401234
 30
0.0
  0
SEQEND
  5
13F
100
AcDbEntity
  8
LAYER_1
 62
     7
  0
POLYLINE
  5
136
100
AcDbEntity
  8
LAYER_1
 62
     7
100
AcDb2dPolyline
 66
     1
 10
0.0
 20
0.0
 30
0.0
  0
VERTEX
  5
137
100
AcDbEntity
  8
LAYER_1
 62
     7
100
AcDbVertex
100
AcDb2dVertex
 10
64.2953
 20
159.439019
 30
0.0
  0
VERTEX
  5
138
100
AcDbEntity
  8
LAYER_1
 62
     7
100
AcDbVertex
100
AcDb2dVertex
 10
66.226276
 20
159.956472
 30
0.0
  0
VERTEX
  5
139
100
AcDbEntity
  8
LAYER_1
 62
     7
100
AcDbVertex
100
AcDb2dVertex
 10
64.2953
 20
160.473754
 30
0.0
  0
SEQEND
  5
13A
100
AcDbEntity
  8
LAYER_1
 62
     7
  0
LINE
  5
135
100
AcDbEntity
  8
LAYER_1
 62
     7
100
AcDbLine
 10
86.822263
 20
104.157983
 30
0.0
 11
86.822263
 21
99.522952
 31
0.0
  0
POLYLINE
  5
130
100
AcDbEntity
  8
LAYER_1
 62
     7
100
AcDb2dPolyline
 66
     1
 10
0.0
 20
0.0
 30
0.0
  0
VERTEX
  5
131
100
AcDbEntity
  8
LAYER_1
 62
     7
100
AcDbVertex
100
AcDb2dVertex
 10
161.623899
 20
196.682396
 30
0.0
  0
VERTEX
  5
132
100
AcDbEntity
  8
LAYER_1
 62
     7
100
AcDbVertex
100
AcDb2dVertex
 10
161.10679
 20
198.613372
 30
0.0
  0
VERTEX
  5
133
100
AcDbEntity
  8
LAYER_1
 62
     7
100
AcDbVertex
100
AcDb2dVertex
 10
160.589681
 20
196.682396
 30
0.0
  0
SEQEND
  5
134
100
AcDbEntity
  8
LAYER_1
 62
     7
  0
POLYLINE
  5
12B
100
AcDbEntity
  8
LAYER_1
 62
     7
100
AcDb2dPolyline
 66
     1
 10
0.0
 20
0.0
 30
0.0
  0
VERTEX
  5
12C
100
AcDbEntity
  8
LAYER_1
 62
     7
100
AcDbVertex
100
AcDb2dVertex
 10
74.085056
 20
168.269488
 30
0.0
  0
VERTEX
  5
12D
100
AcDbEntity
  8
LAYER_1
 62
     7
100
AcDbVertex
100
AcDb2dVertex
 10
76.015515
 20
168.786941
 30
0.0
  0
VERTEX
  5
12E
100
AcDbEntity
  8
LAYER_1
 62
     7
100
AcDbVertex
100
AcDb2dVertex
 10
74.085056
 20
169.304395
 30
0.0
  0
SEQEND
  5
12F
100
AcDbEntity
  8
LAYER_1
 62
     7
  0
POLYLINE
  5
126
100
AcDbEntity
  8
LAYER_1
 62
     7
100
AcDb2dPolyline
 66
     1
 10
0.0
 20
0.0
 30
0.0
  0
VERTEX
  5
127
100
AcDbEntity
  8
LAYER_1
 62
     7
100
AcDbVertex
100
AcDb2dVertex
 10
25.535565
 20
174.059315
 30
0.0
  0
VERTEX
  5
128
100
AcDbEntity
  8
LAYER_1
 62
     7
100
AcDbVertex
100
AcDb2dVertex
 10
25.018283
 20
175.989602
 30
0.0
  0
VERTEX
  5
129
100
AcDbEntity
  8
LAYER_1
 62
     7
100
AcDbVertex
100
AcDb2dVertex
 10
24.501002
 20
174.059315
 30
0.0
  0
SEQEND
  5
12A
100
AcDbEntity
  8
LAYER_1
 62
     7
  0
POLYLINE
  5
121
100
AcDbEntity
  8
LAYER_1
 62
     7
100
AcDb2dPolyline
 66
     1
 10
0.0
 20
0.0
 30
0.0
  0
VERTEX
  5
122
100
AcDbEntity
  8
LAYER_1
 62
     7
100
AcDbVertex
100
AcDb2dVertex
 10
95.803282
 20
173.566322
 30
0.0
  0
VERTEX
  5
123
100
AcDbEntity
  8
LAYER_1
 62
     7
100
AcDbVertex
100
AcDb2dVertex
 10
95.286174
 20
175.496609
 30
0.0
  0
VERTEX
  5
124
100
AcDbEntity
  8
LAYER_1
 62
     7
100
AcDbVertex
100
AcDb2dVertex
 10
94.767687
 20
173.566322
 30
0.0
  0
SEQEND
  5
125
100
AcDbEntity
  8
LAYER_1
 62
     7
  0
POLYLINE
  5
11C
100
AcDbEntity
  8
LAYER_1
 62
     7
100
AcDb2dPolyline
 66
     1
 10
0.0
 20
0.0
 30
0.0
  0
VERTEX
  5
11D
100
AcDbEntity
  8
LAYER_1
 62
     7
100
AcDbVertex
100
AcDb2dVertex
 10
94.774577
 20
179.270711
 30
0.0
  0
VERTEX
  5
11E
100
AcDbEntity
  8
LAYER_1
 62
     7
100
AcDbVertex
100
AcDb2dVertex
 10
95.291513
 20
177.339563
 30
0.0
  0
VERTEX
  5
11F
100
AcDbEntity
  8
LAYER_1
 62
     7
100
AcDbVertex
100
AcDb2dVertex
 10
95.809828
 20
179.270711
 30
0.0
  0
SEQEND
  5
120
100
AcDbEntity
  8
LAYER_1
 62
     7
  0
POLYLINE
  5
117
100
AcDbEntity
  8
LAYER_1
 62
     7
100
AcDb2dPolyline
 66
     1
 10
0.0
 20
0.0
 30
0.0
  0
VERTEX
  5
118
100
AcDbEntity
  8
LAYER_1
 62
     7
100
AcDbVertex
100
AcDb2dVertex
 10
161.623899
 20
173.6838
 30
0.0
  0
VERTEX
  5
119
100
AcDbEntity
  8
LAYER_1
 62
     7
100
AcDbVertex
100
AcDb2dVertex
 10
161.10679
 20
175.61512
 30
0.0
  0
VERTEX
  5
11A
100
AcDbEntity
  8
LAYER_1
 62
     7
100
AcDbVertex
100
AcDb2dVertex
 10
160.589681
 20
173.6838
 30
0.0
  0
SEQEND
  5
11B
100
AcDbEntity
  8
LAYER_1
 62
     7
  0
POLYLINE
  5
112
100
AcDbEntity
  8
LAYER_1
 62
     7
100
AcDb2dPolyline
 66
     1
 10
0.0
 20
0.0
 30
0.0
  0
VERTEX
  5
113
100
AcDbEntity
  8
LAYER_1
 62
     7
100
AcDbVertex
100
AcDb2dVertex
 10
143.680463
 20
81.192632
 30
0.0
  0
VERTEX
  5
114
100
AcDbEntity
  8
LAYER_1
 62
     7
100
AcDbVertex
100
AcDb2dVertex
 10
145.611439
 20
81.710086
 30
0.0
  0
VERTEX
  5
115
100
AcDbEntity
  8
LAYER_1
 62
     7
100
AcDbVertex
100
AcDb2dVertex
 10
143.680463
 20
82.227195
 30
0.0
  0
SEQEND
  5
116
100
AcDbEntity
  8
LAYER_1
 62
     7
  0
POLYLINE
  5
10D
100
AcDbEntity
  8
LAYER_1
 62
     7
100
AcDb2dPolyline
 66
     1
 10
0.0
 20
0.0
 30
0.0
  0
VERTEX
  5
10E
100
AcDbEntity
  8
LAYER_1
 62
     7
100
AcDbVertex
100
AcDb2dVertex
 10
160.540416
 20
110.810463
 30
0.0
  0
VERTEX
  5
10F
100
AcDbEntity
  8
LAYER_1
 62
     7
100
AcDbVertex
100
AcDb2dVertex
 10
161.057525
 20
108.879487
 30
0.0
  0
VERTEX
  5
110
100
AcDbEntity
  8
LAYER_1
 62
     7
100
AcDbVertex
100
AcDb2dVertex
 10
161.574634
 20
110.810463
 30
0.0
  0
SEQEND
  5
111
100
AcDbEntity
  8
LAYER_1
 62
     7
  0
POLYLINE
  5
108
100
AcDbEntity
  8
LAYER_1
 62
     7
100
AcDb2dPolyline
 66
     1
 10
0.0
 20
0.0
 30
0.0
  0
VERTEX
  5
109
100
AcDbEntity
  8
LAYER_1
 62
     7
100
AcDbVertex
100
AcDb2dVertex
 10
160.588303
 20
204.399927
 30
0.0
  0
VERTEX
  5
10A
100
AcDbEntity
  8
LAYER_1
 62
     7
100
AcDbVertex
100
AcDb2dVertex
 10
161.10679
 20
202.470329
 30
0.0
  0
VERTEX
  5
10B
100
AcDbEntity
  8
LAYER_1
 62
     7
100
AcDbVertex
100
AcDb2dVertex
 10
161.623899
 20
204.399927
 30
0.0
  0
SEQEND
  5
10C
100
AcDbEntity
  8
LAYER_1
 62
     7
  0
POLYLINE
  5
103
100
AcDbEntity
  8
LAYER_1
 62
     7
100
AcDb2dPolyline
 66
     1
 10
0.0
 20
0.0
 30
0.0
  0
VERTEX
  5
104
100
AcDbEntity
  8
LAYER_1
 62
     7
100
AcDbVertex
100
AcDb2dVertex
 10
160.588303
 20
177.544891
 30
0.0
  0
VERTEX
  5
105
100
AcDbEntity
  8
LAYER_1
 62
     7
100
AcDbVertex
100
AcDb2dVertex
 10
161.10679
 20
175.61512
 30
0.0
  0
VERTEX
  5
106
100
AcDbEntity
  8
LAYER_1
 62
     7
100
AcDbVertex
100
AcDb2dVertex
 10
161.623899
 20
177.544891
 30
0.0
  0
SEQEND
  5
107
100
AcDbEntity
  8
LAYER_1
 62
     7
  0
POLYLINE
  5
FE
100
AcDbEntity
  8
LAYER_1
 62
     7
100
AcDb2dPolyline
 66
     1
 10
0.0
 20
0.0
 30
0.0
  0
VERTEX
  5
FF
100
AcDbEntity
  8
LAYER_1
 62
     7
100
AcDbVertex
100
AcDb2dVertex
 10
141.905206
 20
114.580431
 30
0.0
  0
VERTEX
  5
100
100
AcDbEntity
  8
LAYER_1
 62
     7
100
AcDbVertex
100
AcDb2dVertex
 10
143.836182
 20
115.09754
 30
0.0
  0
VERTEX
  5
101
100
AcDbEntity
  8
LAYER_1
 62
     7
100
AcDbVertex
100
AcDb2dVertex
 10
141.905206
 20
115.614993
 30
0.0
  0
SEQEND
  5
102
100
AcDbEntity
  8
LAYER_1
 62
     7
  0
MTEXT
  5
FD
100
AcDbEntity
  8
LAYER_1
 62
     7
100
AcDbMText
 10
157.597196
 20
123.842914
 30
0.0
 40
2.637985
 41
0.0
 71
     1
 72
     2
  1
\W0.50;\fMS Gothic|b0|i0|c128;乾式保護工法  600以下
  7
KANJISTD
210
0.0
220
0.0
230
1.0
 11
0.0
 21
1.0
 31
0.0
 73
     1
 44
1.0
  0
MTEXT
  5
FC
100
AcDbEntity
  8
LAYER_1
 62
     7
100
AcDbMText
 10
30.278772
 20
163.18598
 30
0.0
 40
2.637985
 41
0.0
 71
     1
 72
     2
  1
\W0.50;\fMS Gothic|b0|i0|c128;(20)
  7
STD
210
0.0
220
0.0
230
1.0
 11
1.000001
 21
0.0
 31
0.0
 73
     1
 44
1.0
  0
MTEXT
  5
FB
100
AcDbEntity
  8
LAYER_1
 62
     7
100
AcDbMText
 10
48.02687
 20
162.951025
 30
0.0
 40
2.637985
 41
0.0
 71
     1
 72
     2
  1
\W0.50;\fMS Gothic|b0|i0|c128;(180)
  7
STD
210
0.0
220
0.0
230
1.0
 11
1.000001
 21
0.0
 31
0.0
 73
     1
 44
1.0
  0
LINE
  5
FA
100
AcDbEntity
  8
LAYER_1
 62
     7
100
AcDbLine
 10
66.282948
 20
159.92116
 30
0.0
 11
28.720728
 21
159.92116
 31
0.0
  0
MTEXT
  5
F9
100
AcDbEntity
  8
LAYER_1
 62
     7
100
AcDbMText
 10
158.223514
 20
198.440256
 30
0.0
 40
2.637985
 41
0.0
 71
     1
 72
     2
  1
\W0.50;\fMS Gothic|b0|i0|c128;(30)
  7
STD
210
0.0
220
0.0
230
1.0
 11
0.0
 21
1.0
 31
0.0
 73
     1
 44
1.0
  0
MTEXT
  5
F8
100
AcDbEntity
  8
LAYER_1
 62
     7
100
AcDbMText
 10
158.031622
 20
183.657868
 30
0.0
 40
2.637985
 41
0.0
 71
     1
 72
     2
  1
\W0.50;\fMS Gothic|b0|i0|c128;(170)
  7
STD
210
0.0
220
0.0
230
1.0
 11
0.0
 21
1.0
 31
0.0
 73
     1
 44
1.0
  0
MTEXT
  5
F7
100
AcDbEntity
  8
LAYER_1
 62
     7
100
AcDbMText
 10
126.13218
 20
123.292119
 30
0.0
 40
2.637985
 41
0.0
 71
     1
 72
     2
  1
\W0.50;\fMS Gothic|b0|i0|c128;伸縮目地
  7
KANJISTD
210
0.0
220
0.0
230
1.0
 11
1.000001
 21
0.0
 31
0.0
 73
     1
 44
1.0
  0
MTEXT
  5
F6
100
AcDbEntity
  8
LAYER_1
 62
     7
100
AcDbMText
 10
178.72742
 20
126.347919
 30
0.0
 40
2.637985
 41
0.0
 71
     1
 72
     2
  1
\W0.50;\fMS Gothic|b0|i0|c128;防水層
  7
KANJISTD
210
0.0
220
0.0
230
1.0
 11
1.000001
 21
0.0
 31
0.0
 73
     1
 44
1.0
  0
MTEXT
  5
F5
100
AcDbEntity
  8
LAYER_1
 62
     7
100
AcDbMText
 10
178.806312
 20
136.455485
 30
0.0
 40
2.637985
 41
0.0
 71
     1
 72
     2
  1
\W0.50;\fMS Gothic|b0|i0|c128;押さえコンクリート
  7
KANJISTD
210
0.0
220
0.0
230
1.0
 11
1.000001
 21
0.0
 31
0.0
 73
     1
 44
1.0
  0
MTEXT
  5
F4
100
AcDbEntity
  8
LAYER_1
 62
     7
100
AcDbMText
 10
123.899759
 20
116.181442
 30
0.0
 40
2.637985
 41
0.0
 71
     1
 72
     2
  1
\W0.50;\fMS Gothic|b0|i0|c128;溶接金網
  7
KANJISTD
210
0.0
220
0.0
230
1.0
 11
1.000001
 21
0.0
 31
0.0
 73
     1
 44
1.0
  0
POLYLINE
  5
EF
100
AcDbEntity
  8
LAYER_1
 62
     7
100
AcDb2dPolyline
 66
     1
 10
0.0
 20
0.0
 30
0.0
  0
VERTEX
  5
F0
100
AcDbEntity
  8
LAYER_1
 62
     7
100
AcDbVertex
100
AcDb2dVertex
 10
78.652908
 20
104.246178
 30
0.0
  0
VERTEX
  5
F1
100
AcDbEntity
  8
LAYER_1
 62
     7
100
AcDbVertex
100
AcDb2dVertex
 10
86.822263
 20
104.246178
 30
0.0
  0
VERTEX
  5
F2
100
AcDbEntity
  8
LAYER_1
 62
     7
100
AcDbVertex
100
AcDb2dVertex
 10
86.822263
 20
115.704221
 30
0.0
  0
SEQEND
  5
F3
100
AcDbEntity
  8
LAYER_1
 62
     7
  0
MTEXT
  5
EE
100
AcDbEntity
  8
LAYER_1
 62
     7
100
AcDbMText
 10
90.663028
 20
140.41321
 30
0.0
 40
2.637985
 41
0.0
 71
     1
 72
     2
  1
\W0.50;\fMS Gothic|b0|i0|c128;成形緩衝材
  7
KANJISTD
210
0.0
220
0.0
230
1.0
 11
1.000001
 21
0.0
 31
0.0
 73
     1
 44
1.0
  0
MTEXT
  5
ED
100
AcDbEntity
  8
LAYER_1
 62
     7
100
AcDbMText
 10
91.603883
 20
127.190245
 30
0.0
 40
2.637985
 41
0.0
 71
     1
 72
     2
  1
\W0.50;\fMS Gothic|b0|i0|c128;アンカー
  7
KANJISTD
210
0.0
220
0.0
230
1.0
 11
1.000001
 21
0.0
 31
0.0
 73
     1
 44
1.0
  0
MTEXT
  5
EC
100
AcDbEntity
  8
LAYER_1
 62
     7
100
AcDbMText
 10
95.498833
 20
179.260031
 30
0.0
 40
2.637985
 41
0.0
 71
     1
 72
     2
  1
\W0.50;\fMS Gothic|b0|i0|c128;10程度
  7
KANJISTD
210
0.0
220
0.0
230
1.0
 11
0.0
 21
1.0
 31
0.0
 73
     1
 44
1.0
  0
MTEXT
  5
EB
100
AcDbEntity
  8
LAYER_1
 62
     7
100
AcDbMText
 10
87.624033
 20
103.68945
 30
0.0
 40
2.637985
 41
0.0
 71
     1
 72
     2
  1
\W0.50;\fMS Gothic|b0|i0|c128;50以下
  7
KANJISTD
210
0.0
220
0.0
230
1.0
 11
0.0
 21
1.0
 31
0.0
 73
     1
 44
1.0
  0
MTEXT
  5
EA
100
AcDbEntity
  8
LAYER_1
 62
     7
100
AcDbMText
 10
144.064247
 20
118.23782
 30
0.0
 40
2.637985
 41
0.0
 71
     1
 72
     2
  1
\W0.50;\fMS Gothic|b0|i0|c128;(25)
  7
STD
210
0.0
220
0.0
230
1.0
 11
1.000001
 21
0.0
 31
0.0
 73
     1
 44
1.0
  0
MTEXT
  5
E9
100
AcDbEntity
  8
LAYER_1
 62
     7
100
AcDbMText
 10
117.48836
 20
100.320147
 30
0.0
 40
2.637985
 41
0.0
 71
     1
 72
     2
  1
\W0.50;\fMS Gothic|b0|i0|c128;(80)
  7
STD
210
0.0
220
0.0
230
1.0
 11
0.0
 21
1.0
 31
0.0
 73
     1
 44
1.0
  0
LINE
  5
E8
100
AcDbEntity
  8
LAYER_1
 62
     7
100
AcDbLine
 10
120.872553
 20
97.89101
 30
0.0
 11
120.872553
 21
108.821954
 31
0.0
  0
POLYLINE
  5
E2
100
AcDbEntity
  8
LAYER_1
 62
     7
100
AcDb2dPolyline
 66
     1
 10
0.0
 20
0.0
 30
0.0
  0
VERTEX
  5
E3
100
AcDbEntity
  8
LAYER_1
 62
     7
100
AcDbVertex
100
AcDb2dVertex
 10
147.413224
 20
109.19299
 30
0.0
  0
VERTEX
  5
E4
100
AcDbEntity
  8
LAYER_1
 62
     7
100
AcDbVertex
100
AcDb2dVertex
 10
147.413224
 20
115.041729
 30
0.0
  0
VERTEX
  5
E5
100
AcDbEntity
  8
LAYER_1
 62
     7
100
AcDbVertex
100
AcDb2dVertex
 10
143.945736
 20
115.041729
 30
0.0
  0
VERTEX
  5
E6
100
AcDbEntity
  8
LAYER_1
 62
     7
100
AcDbVertex
100
AcDb2dVertex
 10
143.945736
 20
109.19299
 30
0.0
  0
SEQEND
  5
E7
100
AcDbEntity
  8
LAYER_1
 62
     7
  0
POLYLINE
  5
DC
100
AcDbEntity
  8
LAYER_1
 62
     7
100
AcDb2dPolyline
 66
     1
 10
0.0
 20
0.0
 30
0.0
 70
     1
  0
VERTEX
  5
DD
100
AcDbEntity
  8
LAYER_1
 62
     7
100
AcDbVertex
100
AcDb2dVertex
 10
147.356036
 20
98.409153
 30
0.0
  0
VERTEX
  5
DE
100
AcDbEntity
  8
LAYER_1
 62
     7
100
AcDbVertex
100
AcDb2dVertex
 10
147.356036
 20
108.607324
 30
0.0
  0
VERTEX
  5
DF
100
AcDbEntity
  8
LAYER_1
 62
     7
100
AcDbVertex
100
AcDb2dVertex
 10
144.024284
 20
108.607324
 30
0.0
  0
VERTEX
  5
E0
100
AcDbEntity
  8
LAYER_1
 62
     7
100
AcDbVertex
100
AcDb2dVertex
 10
144.024284
 20
98.409153
 30
0.0
  0
SEQEND
  5
E1
100
AcDbEntity
  8
LAYER_1
 62
     7
  0
MTEXT
  5
DB
100
AcDbEntity
  8
LAYER_1
 62
     7
100
AcDbMText
 10
71.74463
 20
218.452547
 30
0.0
 40
2.637985
 41
0.0
 71
     1
 72
     2
  1
\W0.50;\fMS Gothic|b0|i0|c128;コンクリートこて仕上げA種
  7
KANJISTD
210
0.0
220
0.0
230
1.0
 11
1.000001
 21
0.0
 31
0.0
 73
     1
 44
1.0
  0
MTEXT
  5
DA
100
AcDbEntity
  8
LAYER_1
 62
     7
100
AcDbMText
 10
47.809657
 20
214.003895
 30
0.0
 40
2.637985
 41
0.0
 71
     1
 72
     2
  1
\W0.50;\fMS Gothic|b0|i0|c128;水切り溝
  7
KANJISTD
210
0.0
220
0.0
230
1.0
 11
1.000001
 21
0.0
 31
0.0
 73
     1
 44
1.0
  0
SPLINE
  5
D9
100
AcDbEntity
  8
LAYER_1
 62
     7
100
AcDbSpline
210
0.0
220
0.0
230
1.0
 70
     8
 71
     3
 72
    11
 73
     7
 74
     0
 42
0.00000001
 43
0.00000001
 40
0.0
 40
0.0
 40
0.0
 40
0.0
 40
1.0
 40
1.0
 40
1.0
 40
2.0
 40
2.0
 40
2.0
 40
2.0
 10
71.031840006510407
 20
170.52860921223956
 30
0.0
 10
70.803085666232633
 20
171.89562310112845
 30
0.0
 10
70.711618381076377
 20
173.28210177951388
 30
0.0
 10
70.7588161892361
 20
174.66737467447916
 30
0.0
 10
70.792922634548603
 20
175.0811306423611
 30
0.0
 10
70.884906684027769
 20
175.48799641927081
 30
0.0
 10
71.031840006510407
 20
175.87625868055554
 30
0.0
  0
LINE
  5
D8
100
AcDbEntity
  8
LAYER_1
 62
     7
100
AcDbLine
 10
70.174528
 20
170.54704
 30
0.0
 11
70.990671
 21
171.363184
 31
0.0
  0
LINE
  5
D7
100
AcDbEntity
  8
LAYER_1
 62
     7
100
AcDbLine
 10
68.841965
 20
170.547213
 30
0.0
 11
70.72092
 21
172.426168
 31
0.0
  0
LINE
  5
D6
100
AcDbEntity
  8
LAYER_1
 62
     7
100
AcDbLine
 10
67.999467
 20
171.037278
 30
0.0
 11
70.701111
 21
173.738749
 31
0.0
  0
LINE
  5
D5
100
AcDbEntity
  8
LAYER_1
 62
     7
100
AcDbLine
 10
67.117523
 20
171.488241
 30
0.0
 11
70.769324
 21
175.13987
 31
0.0
  0
LINE
  5
D4
100
AcDbEntity
  8
LAYER_1
 62
     7
100
AcDbLine
 10
66.391813
 20
172.095266
 30
0.0
 11
69.985392
 21
175.688501
 31
0.0
  0
LINE
  5
D3
100
AcDbEntity
  8
LAYER_1
 62
     7
100
AcDbLine
 10
66.391813
 20
173.427657
 30
0.0
 11
68.731377
 21
175.767049
 31
0.0
  0
LINE
  5
D2
100
AcDbEntity
  8
LAYER_1
 62
     7
100
AcDbLine
 10
66.391813
 20
174.760565
 30
0.0
 11
67.389168
 21
175.757747
 31
0.0
  0
LINE
  5
D1
100
AcDbEntity
  8
LAYER_1
 62
     7
100
AcDbLine
 10
61.056049
 20
165.768349
 30
0.0
 11
69.25486
 21
165.768349
 31
0.0
  0
POLYLINE
  5
CC
100
AcDbEntity
  8
LAYER_1
 62
     7
100
AcDb2dPolyline
 66
     1
 10
0.0
 20
0.0
 30
0.0
  0
VERTEX
  5
CD
100
AcDbEntity
  8
LAYER_1
 62
     7
100
AcDbVertex
100
AcDb2dVertex
 10
71.111422
 20
170.22768
 30
0.0
  0
VERTEX
  5
CE
100
AcDbEntity
  8
LAYER_1
 62
     7
100
AcDbVertex
100
AcDb2dVertex
 10
68.959271
 20
170.22768
 30
0.0
  0
VERTEX
  5
CF
100
AcDbEntity
  8
LAYER_1
 62
     7
100
AcDbVertex
100
AcDb2dVertex
 10
68.959271
 20
161.618387
 30
0.0
  0
SEQEND
  5
D0
100
AcDbEntity
  8
LAYER_1
 62
     7
  0
POLYLINE
  5
C6
100
AcDbEntity
  8
LAYER_1
 62
     7
100
AcDb2dPolyline
 66
     1
 10
0.0
 20
0.0
 30
0.0
  0
VERTEX
  5
C7
100
AcDbEntity
  8
LAYER_1
 62
     7
100
AcDbVertex
100
AcDb2dVertex
 10
83.393187
 20
175.639064
 30
0.0
  0
VERTEX
  5
C8
100
AcDbEntity
  8
LAYER_1
 62
     7
100
AcDbVertex
100
AcDb2dVertex
 10
100.45709
 20
175.637686
 30
0.0
  0
VERTEX
  5
C9
100
AcDbEntity
  8
LAYER_1
 62
     7
100
AcDbVertex
100
AcDb2dVertex
 10
161.10679
 20
175.608403
 30
0.0
  0
VERTEX
  5
CA
100
AcDbEntity
  8
LAYER_1
 62
     7
100
AcDbVertex
100
AcDb2dVertex
 10
161.10679
 20
108.787503
 30
0.0
  0
SEQEND
  5
CB
100
AcDbEntity
  8
LAYER_1
 62
     7
  0
POLYLINE
  5
C1
100
AcDbEntity
  8
LAYER_1
 62
     7
100
AcDb2dPolyline
 66
     1
 10
0.0
 20
0.0
 30
0.0
  0
VERTEX
  5
C2
100
AcDbEntity
  8
LAYER_1
 62
     7
100
AcDbVertex
100
AcDb2dVertex
 10
81.160937
 20
177.339563
 30
0.0
  0
VERTEX
  5
C3
100
AcDbEntity
  8
LAYER_1
 62
     7
100
AcDbVertex
100
AcDb2dVertex
 10
95.291513
 20
177.339563
 30
0.0
  0
VERTEX
  5
C4
100
AcDbEntity
  8
LAYER_1
 62
     7
100
AcDbVertex
100
AcDb2dVertex
 10
95.291513
 20
169.60963
 30
0.0
  0
SEQEND
  5
C5
100
AcDbEntity
  8
LAYER_1
 62
     7
  0
POLYLINE
  5
BC
100
AcDbEntity
  8
LAYER_1
 62
     7
100
AcDb2dPolyline
 66
     1
 10
0.0
 20
0.0
 30
0.0
  0
VERTEX
  5
BD
100
AcDbEntity
  8
LAYER_1
 62
     7
100
AcDbVertex
100
AcDb2dVertex
 10
45.626328
 20
202.425026
 30
0.0
  0
VERTEX
  5
BE
100
AcDbEntity
  8
LAYER_1
 62
     7
100
AcDbVertex
100
AcDb2dVertex
 10
161.125393
 20
202.425026
 30
0.0
  0
VERTEX
  5
BF
100
AcDbEntity
  8
LAYER_1
 62
     7
100
AcDbVertex
100
AcDb2dVertex
 10
161.125393
 20
174.332856
 30
0.0
  0
SEQEND
  5
C0
100
AcDbEntity
  8
LAYER_1
 62
     7
  0
LINE
  5
BB
100
AcDbEntity
  8
LAYER_1
 62
     7
100
AcDbLine
 10
92.014539
 20
198.42682
 30
0.0
 11
161.145375
 21
198.42682
 31
0.0
  0
MTEXT
  5
BA
100
AcDbEntity
  8
LAYER_1
 62
     7
100
AcDbMText
 10
93.124548
 20
132.463652
 30
0.0
 40
2.637985
 41
0.0
 71
     1
 72
     2
  1
\W0.50;\fMS Gothic|b0|i0|c128;下部ホルダー
  7
KANJISTD
210
0.0
220
0.0
230
1.0
 11
1.000001
 21
0.0
 31
0.0
 73
     1
 44
1.0
  0
MTEXT
  5
B9
100
AcDbEntity
  8
LAYER_1
 62
     7
100
AcDbMText
 10
91.743926
 20
158.679968
 30
0.0
 40
2.637985
 41
0.0
 71
     1
 72
     2
  1
\W0.50;\fMS Gothic|b0|i0|c128;ボード
  7
KANJISTD
210
0.0
220
0.0
230
1.0
 11
1.000001
 21
0.0
 31
0.0
 73
     1
 44
1.0
  0
SPLINE
  5
B8
100
AcDbEntity
  8
LAYER_1
 62
     7
100
AcDbSpline
210
0.0
220
0.0
230
1.0
 70
     8
 71
     3
 72
    17
 73
    13
 74
     0
 42
0.00000001
 43
0.00000001
 40
0.0
 40
0.0
 40
0.0
 40
0.0
 40
1.0
 40
1.0
 40
1.0
 40
2.0
 40
2.0
 40
2.0
 40
3.0
 40
3.0
 40
3.0
 40
4.0
 40
4.0
 40
4.0
 40
4.0
 10
181.33845757378469
 20
102.58805338541666
 30
0.0
 10
181.58237033420139
 20
102.74687228732638
 30
0.0
 10
181.72258572048611
 20
103.02454698350694
 30
0.0
 10
181.70501573350694
 20
103.3149685329861
 30
0.0
 10
181.62577853732637
 20
103.69634060329861
 30
0.0
 10
181.28057996961803
 20
103.9629909939236
 30
0.0
 10
180.89197319878471
 20
103.94300944010416
 30
0.0
 10
180.51094563802081
 20
103.86411675347222
 30
0.0
 10
180.24429524739583
 20
103.51891818576388
 30
0.0
 10
180.26427680121526
 20
103.12996690538193
 30
0.0
 10
180.43963216145832
 20
102.70897623697915
 30
0.0
 10
180.89576280381942
 20
102.47918836805555
 30
0.0
 10
181.33845757378469
 20
102.58805338541666
 30
0.0
  0
SPLINE
  5
B7
100
AcDbEntity
  8
LAYER_1
 62
     7
100
AcDbSpline
210
0.0
220
0.0
230
1.0
 70
     8
 71
     3
 72
    17
 73
    13
 74
     0
 42
0.00000001
 43
0.00000001
 40
0.0
 40
0.0
 40
0.0
 40
0.0
 40
1.0
 40
1.0
 40
1.0
 40
2.0
 40
2.0
 40
2.0
 40
3.0
 40
3.0
 40
3.0
 40
4.0
 40
4.0
 40
4.0
 40
4.0
 10
172.00948350694443
 20
102.58805338541666
 30
0.0
 10
172.2533962673611
 20
102.74687228732638
 30
0.0
 10
172.39361165364582
 20
103.02454698350694
 30
0.0
 10
172.37604166666665
 20
103.3149685329861
 30
0.0
 10
172.29714898003471
 20
103.69634060329861
 30
0.0
 10
171.95195041232637
 20
103.9629909939236
 30
0.0
 10
171.56299913194442
 20
103.94300944010416
 30
0.0
 10
171.18197157118053
 20
103.86411675347222
 30
0.0
 10
170.91532118055554
 20
103.51891818576388
 30
0.0
 10
170.93530273437497
 20
103.12996690538193
 30
0.0
 10
171.11065809461803
 20
102.70897623697915
 30
0.0
 10
171.56678873697916
 20
102.47918836805555
 30
0.0
 10
172.00948350694443
 20
102.58805338541666
 30
0.0
  0
SPLINE
  5
B6
100
AcDbEntity
  8
LAYER_1
 62
     7
100
AcDbSpline
210
0.0
220
0.0
230
1.0
 70
     8
 71
     3
 72
    17
 73
    13
 74
     0
 42
0.00000001
 43
0.00000001
 40
0.0
 40
0.0
 40
0.0
 40
0.0
 40
1.0
 40
1.0
 40
1.0
 40
2.0
 40
2.0
 40
2.0
 40
3.0
 40
3.0
 40
3.0
 40
4.0
 40
4.0
 40
4.0
 40
4.0
 10
162.68050944010415
 20
102.58805338541666
 30
0.0
 10
162.92476671006943
 20
102.74687228732638
 30
0.0
 10
163.06463758680553
 20
103.02454698350694
 30
0.0
 10
163.04706759982636
 20
103.3149685329861
 30
0.0
 10
162.96817491319442
 20
103.69634060329861
 30
0.0
 10
162.62297634548611
 20
103.9629909939236
 30
0.0
 10
162.23436957465276
 20
103.94300944010416
 30
0.0
 10
161.85299750434027
 20
103.86411675347222
 30
0.0
 10
161.58634711371528
 20
103.51891818576388
 30
0.0
 10
161.60632866753471
 20
103.12996690538193
 30
0.0
 10
161.78168402777777
 20
102.70897623697915
 30
0.0
 10
162.23781467013887
 20
102.47918836805555
 30
0.0
 10
162.68050944010415
 20
102.58805338541666
 30
0.0
  0
SPLINE
  5
B5
100
AcDbEntity
  8
LAYER_1
 62
     7
100
AcDbSpline
210
0.0
220
0.0
230
1.0
 70
     8
 71
     3
 72
    17
 73
    13
 74
     0
 42
0.00000001
 43
0.00000001
 40
0.0
 40
0.0
 40
0.0
 40
0.0
 40
1.0
 40
1.0
 40
1.0
 40
2.0
 40
2.0
 40
2.0
 40
3.0
 40
3.0
 40
3.0
 40
4.0
 40
4.0
 40
4.0
 40
4.0
 10
153.35187988281248
 20
102.58805338541666
 30
0.0
 10
153.59579264322915
 20
102.74687228732638
 30
0.0
 10
153.73600802951387
 20
103.02454698350694
 30
0.0
 10
153.7180935329861
 20
103.3149685329861
 30
0.0
 10
153.63920084635416
 20
103.69634060329861
 30
0.0
 10
153.29434678819442
 20
103.9629909939236
 30
0.0
 10
152.9053955078125
 20
103.94300944010416
 30
0.0
 10
152.52402343749998
 20
103.86411675347222
 30
0.0
 10
152.25771755642359
 20
103.51891818576388
 30
0.0
 10
152.27769911024305
 20
103.12996690538193
 30
0.0
 10
152.45305447048611
 20
102.70897623697915
 30
0.0
 10
152.90918511284721
 20
102.47918836805555
 30
0.0
 10
153.35187988281248
 20
102.58805338541666
 30
0.0
  0
SPLINE
  5
B4
100
AcDbEntity
  8
LAYER_1
 62
     7
100
AcDbSpline
210
0.0
220
0.0
230
1.0
 70
     8
 71
     3
 72
    17
 73
    13
 74
     0
 42
0.00000001
 43
0.00000001
 40
0.0
 40
0.0
 40
0.0
 40
0.0
 40
1.0
 40
1.0
 40
1.0
 40
2.0
 40
2.0
 40
2.0
 40
3.0
 40
3.0
 40
3.0
 40
4.0
 40
4.0
 40
4.0
 40
4.0
 10
138.45632052951387
 20
102.61768120659721
 30
0.0
 10
138.70023328993054
 20
102.77615559895833
 30
0.0
 10
138.84044867621526
 20
103.05383029513888
 30
0.0
 10
138.82253417968749
 20
103.34459635416665
 30
0.0
 10
138.74364149305555
 20
103.72562391493055
 30
0.0
 10
138.39844292534721
 20
103.99227430555554
 30
0.0
 10
138.00983615451386
 20
103.97263726128472
 30
0.0
 10
137.62880859374999
 20
103.89340006510416
 30
0.0
 10
137.36215820312498
 20
103.54820149739582
 30
0.0
 10
137.38213975694444
 20
103.15925021701388
 30
0.0
 10
137.5574951171875
 20
102.73860405815971
 30
0.0
 10
138.0136257595486
 20
102.50847167968749
 30
0.0
 10
138.45632052951387
 20
102.61768120659721
 30
0.0
  0
SPLINE
  5
B3
100
AcDbEntity
  8
LAYER_1
 62
     7
100
AcDbSpline
210
0.0
220
0.0
230
1.0
 70
     8
 71
     3
 72
    17
 73
    13
 74
     0
 42
0.00000001
 43
0.00000001
 40
0.0
 40
0.0
 40
0.0
 40
0.0
 40
1.0
 40
1.0
 40
1.0
 40
2.0
 40
2.0
 40
2.0
 40
3.0
 40
3.0
 40
3.0
 40
4.0
 40
4.0
 40
4.0
 40
4.0
 10
129.12734646267359
 20
102.61768120659721
 30
0.0
 10
129.37160373263887
 20
102.77615559895833
 30
0.0
 10
129.511474609375
 20
103.05383029513888
 30
0.0
 10
129.49390462239583
 20
103.34459635416665
 30
0.0
 10
129.41466742621526
 20
103.72562391493055
 30
0.0
 10
129.06981336805555
 20
103.99227430555554
 30
0.0
 10
128.6808620876736
 20
103.97263726128472
 30
0.0
 10
128.29983452690971
 20
103.89340006510416
 30
0.0
 10
128.03318413628472
 20
103.54820149739582
 30
0.0
 10
128.05316569010415
 20
103.15925021701388
 30
0.0
 10
128.22852105034721
 20
102.73860405815971
 30
0.0
 10
128.68465169270831
 20
102.50847167968749
 30
0.0
 10
129.12734646267359
 20
102.61768120659721
 30
0.0
  0
SPLINE
  5
B2
100
AcDbEntity
  8
LAYER_1
 62
     7
100
AcDbSpline
210
0.0
220
0.0
230
1.0
 70
     8
 71
     3
 72
    17
 73
    13
 74
     0
 42
0.00000001
 43
0.00000001
 40
0.0
 40
0.0
 40
0.0
 40
0.0
 40
1.0
 40
1.0
 40
1.0
 40
2.0
 40
2.0
 40
2.0
 40
3.0
 40
3.0
 40
3.0
 40
4.0
 40
4.0
 40
4.0
 40
4.0
 10
110.46974283854166
 20
102.61768120659721
 30
0.0
 10
110.71365559895833
 20
102.77615559895833
 30
0.0
 10
110.85352647569444
 20
103.05383029513888
 30
0.0
 10
110.83595648871527
 20
103.34459635416665
 30
0.0
 10
110.75706380208332
 20
103.72562391493055
 30
0.0
 10
110.41186523437499
 20
103.99227430555554
 30
0.0
 10
110.02325846354165
 20
103.97263726128472
 30
0.0
 10
109.64188639322916
 20
103.89340006510416
 30
0.0
 10
109.37558051215277
 20
103.54820149739582
 30
0.0
 10
109.39556206597221
 20
103.15925021701388
 30
0.0
 10
109.57091742621527
 20
102.73860405815971
 30
0.0
 10
110.02704806857638
 20
102.50847167968749
 30
0.0
 10
110.46974283854166
 20
102.61768120659721
 30
0.0
  0
SPLINE
  5
B1
100
AcDbEntity
  8
LAYER_1
 62
     7
100
AcDbSpline
210
0.0
220
0.0
230
1.0
 70
     8
 71
     3
 72
    17
 73
    13
 74
     0
 42
0.00000001
 43
0.00000001
 40
0.0
 40
0.0
 40
0.0
 40
0.0
 40
1.0
 40
1.0
 40
1.0
 40
2.0
 40
2.0
 40
2.0
 40
3.0
 40
3.0
 40
3.0
 40
4.0
 40
4.0
 40
4.0
 40
4.0
 10
101.14076877170137
 20
102.61768120659721
 30
0.0
 10
101.38485378689235
 20
102.77615559895833
 30
0.0
 10
101.52489691840277
 20
103.05383029513888
 30
0.0
 10
101.50715467664929
 20
103.34459635416665
 30
0.0
 10
101.42826199001735
 20
103.72562391493055
 30
0.0
 10
101.08306342230902
 20
103.99227430555554
 30
0.0
 10
100.69428439670138
 20
103.97263726128472
 30
0.0
 10
100.31308458116318
 20
103.89340006510416
 30
0.0
 10
100.04660644531249
 20
103.54820149739582
 30
0.0
 10
100.06658799913194
 20
103.15925021701388
 30
0.0
 10
100.24194335937499
 20
102.73860405815971
 30
0.0
 10
100.6980740017361
 20
102.50847167968749
 30
0.0
 10
101.14076877170137
 20
102.61768120659721
 30
0.0
  0
SPLINE
  5
B0
100
AcDbEntity
  8
LAYER_1
 62
     7
100
AcDbSpline
210
0.0
220
0.0
230
1.0
 70
     8
 71
     3
 72
    17
 73
    13
 74
     0
 42
0.00000001
 43
0.00000001
 40
0.0
 40
0.0
 40
0.0
 40
0.0
 40
1.0
 40
1.0
 40
1.0
 40
2.0
 40
2.0
 40
2.0
 40
3.0
 40
3.0
 40
3.0
 40
4.0
 40
4.0
 40
4.0
 40
4.0
 10
91.811966959635413
 20
102.61768120659721
 30
0.0
 10
92.056051974826374
 20
102.77615559895833
 30
0.0
 10
92.195922851562486
 20
103.05383029513888
 30
0.0
 10
92.178352864583331
 20
103.34459635416665
 30
0.0
 10
92.099460177951386
 20
103.72562391493055
 30
0.0
 10
91.754261610243049
 20
103.99227430555554
 30
0.0
 10
91.365482584635402
 20
103.97263726128472
 30
0.0
 10
90.983766004774296
 20
103.89374457465277
 30
0.0
 10
90.716771104600681
 20
103.54854600694443
 30
0.0
 10
90.736408148871519
 20
103.15925021701388
 30
0.0
 10
90.91210801866319
 20
102.7382595486111
 30
0.0
 10
91.368755425347217
 20
102.50812717013888
 30
0.0
 10
91.811966959635413
 20
102.61768120659721
 30
0.0
  0
SPLINE
  5
AF
100
AcDbEntity
  8
LAYER_1
 62
     7
100
AcDbSpline
210
0.0
220
0.0
230
1.0
 70
     8
 71
     3
 72
    17
 73
    13
 74
     0
 42
0.00000001
 43
0.00000001
 40
0.0
 40
0.0
 40
0.0
 40
0.0
 40
1.0
 40
1.0
 40
1.0
 40
2.0
 40
2.0
 40
2.0
 40
3.0
 40
3.0
 40
3.0
 40
4.0
 40
4.0
 40
4.0
 40
4.0
 10
82.482992892795124
 20
102.61768120659721
 30
0.0
 10
82.7270779079861
 20
102.77615559895833
 30
0.0
 10
82.867121039496524
 20
103.05383029513888
 30
0.0
 10
82.849551052517356
 20
103.34459635416665
 30
0.0
 10
82.770486111111097
 20
103.72562391493055
 30
0.0
 10
82.425287543402774
 20
103.99227430555554
 30
0.0
 10
82.036508517795127
 20
103.97263726128472
 30
0.0
 10
81.65496419270832
 20
103.89374457465277
 30
0.0
 10
81.38796929253472
 20
103.54854600694443
 30
0.0
 10
81.407606336805543
 20
103.15925021701388
 30
0.0
 10
81.583306206597214
 20
102.7382595486111
 30
0.0
 10
82.039953613281241
 20
102.50812717013888
 30
0.0
 10
82.482992892795124
 20
102.61768120659721
 30
0.0
  0
SPLINE
  5
AE
100
AcDbEntity
  8
LAYER_1
 62
     7
100
AcDbSpline
210
0.0
220
0.0
230
1.0
 70
     8
 71
     3
 72
    17
 73
    13
 74
     0
 42
0.00000001
 43
0.00000001
 40
0.0
 40
0.0
 40
0.0
 40
0.0
 40
1.0
 40
1.0
 40
1.0
 40
2.0
 40
2.0
 40
2.0
 40
3.0
 40
3.0
 40
3.0
 40
4.0
 40
4.0
 40
4.0
 40
4.0
 10
77.931849500868054
 20
106.13856879340277
 30
0.0
 10
78.009019639756943
 20
106.20781521267359
 30
0.0
 10
78.053461371527774
 20
106.30668945312499
 30
0.0
 10
78.054494900173609
 20
106.41038682725693
 30
0.0
 10
78.053116861979163
 20
106.61020236545139
 30
0.0
 10
77.891714138454859
 20
106.77177734374999
 30
0.0
 10
77.691898600260416
 20
106.77349989149305
 30
0.0
 10
77.491738552517347
 20
106.7721218532986
 30
0.0
 10
77.329819064670133
 20
106.610546875
 30
0.0
 10
77.328096516927076
 20
106.41038682725693
 30
0.0
 10
77.421286349826389
 20
106.16991916232638
 30
0.0
 10
77.690176052517359
 20
106.04899631076388
 30
0.0
 10
77.931849500868054
 20
106.13856879340277
 30
0.0
  0
INSERT
  5
A9
100
AcDbEntity
  8
LAYER_1
 62
     7
100
AcDbBlockReference
  2
AI9-BLK2
 10
74.657458
 20
109.086192
 30
0.0
  0
POLYLINE
  5
A3
100
AcDbEntity
  8
LAYER_1
 62
     7
100
AcDb2dPolyline
 66
     1
 10
0.0
 20
0.0
 30
0.0
  0
VERTEX
  5
A4
100
AcDbEntity
  8
LAYER_1
 62
     7
100
AcDbVertex
100
AcDb2dVertex
 10
142.927365
 20
102.619404
 30
0.0
  0
VERTEX
  5
A5
100
AcDbEntity
  8
LAYER_1
 62
     7
100
AcDbVertex
100
AcDb2dVertex
 10
134.132726
 20
114.57423
 30
0.0
  0
VERTEX
  5
A6
100
AcDbEntity
  8
LAYER_1
 62
     7
100
AcDbVertex
100
AcDb2dVertex
 10
132.701633
 20
114.57423
 30
0.0
  0
SEQEND
  5
A7
100
AcDbEntity
  8
LAYER_1
 62
     7
  0
POLYLINE
  5
9E
100
AcDbEntity
  8
LAYER_1
 62
     7
100
AcDb2dPolyline
 66
     1
 10
0.0
 20
0.0
 30
0.0
  0
VERTEX
  5
9F
100
AcDbEntity
  8
LAYER_1
 62
     7
100
AcDbVertex
100
AcDb2dVertex
 10
145.201128
 20
107.173475
 30
0.0
  0
VERTEX
  5
A0
100
AcDbEntity
  8
LAYER_1
 62
     7
100
AcDbVertex
100
AcDb2dVertex
 10
136.866409
 20
121.860607
 30
0.0
  0
VERTEX
  5
A1
100
AcDbEntity
  8
LAYER_1
 62
     7
100
AcDbVertex
100
AcDb2dVertex
 10
135.434972
 20
121.860607
 30
0.0
  0
SEQEND
  5
A2
100
AcDbEntity
  8
LAYER_1
 62
     7
  0
LINE
  5
9D
100
AcDbEntity
  8
LAYER_1
 62
     7
100
AcDbLine
 10
77.794562
 20
110.230998
 30
0.0
 11
77.814544
 21
104.314391
 31
0.0
  0
POLYLINE
  5
97
100
AcDbEntity
  8
LAYER_1
 62
     7
100
AcDb2dPolyline
 66
     1
 10
0.0
 20
0.0
 30
0.0
 70
     1
  0
VERTEX
  5
98
100
AcDbEntity
  8
LAYER_1
 62
     7
100
AcDbVertex
100
AcDb2dVertex
 10
78.683397
 20
110.5979
 30
0.0
  0
VERTEX
  5
99
100
AcDbEntity
  8
LAYER_1
 62
     7
100
AcDbVertex
100
AcDb2dVertex
 10
78.683397
 20
177.243617
 30
0.0
  0
VERTEX
  5
9A
100
AcDbEntity
  8
LAYER_1
 62
     7
100
AcDbVertex
100
AcDb2dVertex
 10
76.687137
 20
177.243617
 30
0.0
  0
VERTEX
  5
9B
100
AcDbEntity
  8
LAYER_1
 62
     7
100
AcDbVertex
100
AcDb2dVertex
 10
76.687137
 20
110.5979
 30
0.0
  0
SEQEND
  5
9C
100
AcDbEntity
  8
LAYER_1
 62
     7
  0
POLYLINE
  5
8D
100
AcDbEntity
  8
LAYER_1
 62
     7
100
AcDb2dPolyline
 66
     1
 10
0.0
 20
0.0
 30
0.0
 70
     1
  0
VERTEX
  5
8E
100
AcDbEntity
  8
LAYER_1
 62
     7
100
AcDbVertex
100
AcDb2dVertex
 10
79.577744
 20
112.823088
 30
0.0
  0
VERTEX
  5
8F
100
AcDbEntity
  8
LAYER_1
 62
     7
100
AcDbVertex
100
AcDb2dVertex
 10
79.576366
 20
109.549558
 30
0.0
  0
VERTEX
  5
90
100
AcDbEntity
  8
LAYER_1
 62
     7
100
AcDbVertex
100
AcDb2dVertex
 10
75.77832
 20
109.549558
 30
0.0
  0
VERTEX
  5
91
100
AcDbEntity
  8
LAYER_1
 62
     7
100
AcDbVertex
100
AcDb2dVertex
 10
75.77832
 20
112.823088
 30
0.0
  0
VERTEX
  5
92
100
AcDbEntity
  8
LAYER_1
 62
     7
100
AcDbVertex
100
AcDb2dVertex
 10
76.213953
 20
112.823088
 30
0.0
  0
VERTEX
  5
93
100
AcDbEntity
  8
LAYER_1
 62
     7
100
AcDbVertex
100
AcDb2dVertex
 10
76.213953
 20
109.985362
 30
0.0
  0
VERTEX
  5
94
100
AcDbEntity
  8
LAYER_1
 62
     7
100
AcDbVertex
100
AcDb2dVertex
 10
79.141939
 20
109.985362
 30
0.0
  0
VERTEX
  5
95
100
AcDbEntity
  8
LAYER_1
 62
     7
100
AcDbVertex
100
AcDb2dVertex
 10
79.141939
 20
112.823088
 30
0.0
  0
SEQEND
  5
96
100
AcDbEntity
  8
LAYER_1
 62
     7
  0
LINE
  5
8C
100
AcDbEntity
  8
LAYER_1
 62
     7
100
AcDbLine
 10
159.646069
 20
108.556337
 30
0.0
 11
169.863878
 21
98.338873
 31
0.0
  0
LINE
  5
8B
100
AcDbEntity
  8
LAYER_1
 62
     7
100
AcDbLine
 10
158.258729
 20
108.611114
 30
0.0
 11
168.527181
 21
98.342318
 31
0.0
  0
LINE
  5
8A
100
AcDbEntity
  8
LAYER_1
 62
     7
100
AcDbLine
 10
157.063281
 20
108.473999
 30
0.0
 11
167.178426
 21
98.357821
 31
0.0
  0
LINE
  5
89
100
AcDbEntity
  8
LAYER_1
 62
     7
100
AcDbLine
 10
132.992055
 20
108.556337
 30
0.0
 11
143.253961
 21
98.293742
 31
0.0
  0
LINE
  5
88
100
AcDbEntity
  8
LAYER_1
 62
     7
100
AcDbLine
 10
131.604715
 20
108.611114
 30
0.0
 11
141.918641
 21
98.297187
 31
0.0
  0
LINE
  5
87
100
AcDbEntity
  8
LAYER_1
 62
     7
100
AcDbLine
 10
130.409266
 20
108.473999
 30
0.0
 11
140.569887
 21
98.31269
 31
0.0
  0
LINE
  5
86
100
AcDbEntity
  8
LAYER_1
 62
     7
100
AcDbLine
 10
106.337006
 20
108.556337
 30
0.0
 11
116.557227
 21
98.336461
 31
0.0
  0
LINE
  5
85
100
AcDbEntity
  8
LAYER_1
 62
     7
100
AcDbLine
 10
104.949666
 20
108.611114
 30
0.0
 11
115.221908
 21
98.339562
 31
0.0
  0
LINE
  5
84
100
AcDbEntity
  8
LAYER_1
 62
     7
100
AcDbLine
 10
103.755424
 20
108.473999
 30
0.0
 11
113.873153
 21
98.355409
 31
0.0
  0
LINE
  5
83
100
AcDbEntity
  8
LAYER_1
 62
     7
100
AcDbLine
 10
79.682992
 20
108.556337
 30
0.0
 11
89.919404
 21
98.320614
 31
0.0
  0
LINE
  5
82
100
AcDbEntity
  8
LAYER_1
 62
     7
100
AcDbLine
 10
78.295652
 20
108.611114
 30
0.0
 11
88.582707
 21
98.323714
 31
0.0
  0
LINE
  5
81
100
AcDbEntity
  8
LAYER_1
 62
     7
100
AcDbLine
 10
146.739019
 20
108.713089
 30
0.0
 11
144.099042
 21
106.073456
 31
0.0
  0
LINE
  5
80
100
AcDbEntity
  8
LAYER_1
 62
     7
100
AcDbLine
 10
144.645435
 20
108.68036
 30
0.0
 11
147.251994
 21
106.073456
 31
0.0
  0
LINE
  5
7F
100
AcDbEntity
  8
LAYER_1
 62
     7
100
AcDbLine
 10
147.302637
 20
106.610891
 30
0.0
 11
144.099042
 21
103.407986
 31
0.0
  0
LINE
  5
7E
100
AcDbEntity
  8
LAYER_1
 62
     7
100
AcDbLine
 10
144.049433
 20
106.610891
 30
0.0
 11
147.251994
 21
103.407986
 31
0.0
  0
LINE
  5
7D
100
AcDbEntity
  8
LAYER_1
 62
     7
100
AcDbLine
 10
147.302637
 20
103.945766
 30
0.0
 11
144.099042
 21
100.742516
 31
0.0
  0
LINE
  5
7C
100
AcDbEntity
  8
LAYER_1
 62
     7
100
AcDbLine
 10
144.049433
 20
103.945766
 30
0.0
 11
147.251994
 21
100.742516
 31
0.0
  0
LINE
  5
7B
100
AcDbEntity
  8
LAYER_1
 62
     7
100
AcDbLine
 10
147.302637
 20
101.280295
 30
0.0
 11
144.450787
 21
98.42879
 31
0.0
  0
LINE
  5
7A
100
AcDbEntity
  8
LAYER_1
 62
     7
100
AcDbLine
 10
144.049433
 20
101.280295
 30
0.0
 11
146.908173
 21
98.42121
 31
0.0
  0
LINE
  5
79
100
AcDbEntity
  8
LAYER_1
 62
     7
100
AcDbLine
 10
77.100203
 20
108.473999
 30
0.0
 11
87.253933
 21
98.320958
 31
0.0
  0
LINE
  5
78
100
AcDbEntity
  8
LAYER_1
 62
     7
100
AcDbLine
 10
84.968457
 20
185.753003
 30
0.0
 11
70.669416
 21
200.052733
 31
0.0
  0
LINE
  5
77
100
AcDbEntity
  8
LAYER_1
 62
     7
100
AcDbLine
 10
84.988439
 20
187.065584
 30
0.0
 11
72.099647
 21
199.954031
 31
0.0
  0
LINE
  5
76
100
AcDbEntity
  8
LAYER_1
 62
     7
100
AcDbLine
 10
84.979137
 20
188.407621
 30
0.0
 11
73.471312
 21
199.915446
 31
0.0
  0
LINE
  5
75
100
AcDbEntity
  8
LAYER_1
 62
     7
100
AcDbLine
 10
68.018587
 20
176.049547
 30
0.0
 11
45.606519
 21
198.460238
 31
0.0
  0
LINE
  5
74
100
AcDbEntity
  8
LAYER_1
 62
     7
100
AcDbLine
 10
69.404894
 20
175.994942
 30
0.0
 11
45.704876
 21
199.695649
 31
0.0
  0
LINE
  5
73
100
AcDbEntity
  8
LAYER_1
 62
     7
100
AcDbLine
 10
70.859757
 20
175.873675
 30
0.0
 11
45.777223
 21
200.955004
 31
0.0
  0
LINE
  5
72
100
AcDbEntity
  8
LAYER_1
 62
     7
100
AcDbLine
 10
186.558466
 20
84.162994
 30
0.0
 11
174.84962
 21
95.872184
 31
0.0
  0
LINE
  5
71
100
AcDbEntity
  8
LAYER_1
 62
     7
100
AcDbLine
 10
186.598429
 20
85.456283
 30
0.0
 11
176.162202
 21
95.892166
 31
0.0
  0
LINE
  5
70
100
AcDbEntity
  8
LAYER_1
 62
     7
100
AcDbLine
 10
186.637014
 20
86.749916
 30
0.0
 11
177.474783
 21
95.912147
 31
0.0
  0
LINE
  5
6F
100
AcDbEntity
  8
LAYER_1
 62
     7
100
AcDbLine
 10
172.473193
 20
71.594596
 30
0.0
 11
148.195605
 21
95.872184
 31
0.0
  0
LINE
  5
6E
100
AcDbEntity
  8
LAYER_1
 62
     7
100
AcDbLine
 10
173.844686
 20
71.556011
 30
0.0
 11
149.508187
 21
95.892166
 31
0.0
  0
LINE
  5
6D
100
AcDbEntity
  8
LAYER_1
 62
     7
100
AcDbLine
 10
175.098701
 20
71.634559
 30
0.0
 11
150.820768
 21
95.912147
 31
0.0
  0
LINE
  5
6C
100
AcDbEntity
  8
LAYER_1
 62
     7
100
AcDbLine
 10
145.818145
 20
71.594596
 30
0.0
 11
121.541591
 21
95.872184
 31
0.0
  0
LINE
  5
6B
100
AcDbEntity
  8
LAYER_1
 62
     7
100
AcDbLine
 10
147.190671
 20
71.556011
 30
0.0
 11
122.854517
 21
95.892166
 31
0.0
  0
LINE
  5
6A
100
AcDbEntity
  8
LAYER_1
 62
     7
100
AcDbLine
 10
148.444686
 20
71.634559
 30
0.0
 11
124.167098
 21
95.912147
 31
0.0
  0
MTEXT
  5
69
100
AcDbEntity
  8
LAYER_1
 62
     7
100
AcDbMText
 10
106.28843
 20
87.108281
 30
0.0
 40
2.637985
 41
0.0
 71
     1
 72
     2
  1
\W0.50;\fMS Gothic|b0|i0|c128;
  7
STD
210
0.0
220
0.0
230
1.0
 11
1.000001
 21
0.0
 31
0.0
 73
     1
 44
1.0
  0
LINE
  5
68
100
AcDbEntity
  8
LAYER_1
 62
     7
100
AcDbLine
 10
120.536656
 20
71.556011
 30
0.0
 11
96.199124
 21
95.892166
 31
0.0
  0
LINE
  5
67
100
AcDbEntity
  8
LAYER_1
 62
     7
100
AcDbLine
 10
121.789638
 20
71.634559
 30
0.0
 11
97.513083
 21
95.912147
 31
0.0
  0
LINE
  5
66
100
AcDbEntity
  8
LAYER_1
 62
     7
100
AcDbLine
 10
92.510288
 20
71.594596
 30
0.0
 11
68.232872
 21
95.872184
 31
0.0
  0
LINE
  5
65
100
AcDbEntity
  8
LAYER_1
 62
     7
100
AcDbLine
 10
93.881436
 20
71.556011
 30
0.0
 11
69.545626
 21
95.892166
 31
0.0
  0
LINE
  5
64
100
AcDbEntity
  8
LAYER_1
 62
     7
100
AcDbLine
 10
95.135623
 20
71.634559
 30
0.0
 11
70.858379
 21
95.912147
 31
0.0
  0
LINE
  5
63
100
AcDbEntity
  8
LAYER_1
 62
     7
100
AcDbLine
 10
65.856445
 20
71.594596
 30
0.0
 11
39.692323
 21
97.758719
 31
0.0
  0
LINE
  5
62
100
AcDbEntity
  8
LAYER_1
 62
     7
100
AcDbLine
 10
67.227938
 20
71.556011
 30
0.0
 11
39.741588
 21
99.042361
 31
0.0
  0
LINE
  5
61
100
AcDbEntity
  8
LAYER_1
 62
     7
100
AcDbLine
 10
68.481953
 20
71.634559
 30
0.0
 11
39.790681
 21
100.325659
 31
0.0
  0
LINE
  5
60
100
AcDbEntity
  8
LAYER_1
 62
     7
100
AcDbLine
 10
66.435394
 20
97.669835
 30
0.0
 11
39.692323
 21
124.413078
 31
0.0
  0
LINE
  5
5F
100
AcDbEntity
  8
LAYER_1
 62
     7
100
AcDbLine
 10
66.367181
 20
99.070611
 30
0.0
 11
39.741588
 21
125.696376
 31
0.0
  0
LINE
  5
5E
100
AcDbEntity
  8
LAYER_1
 62
     7
100
AcDbLine
 10
66.357707
 20
100.41282
 30
0.0
 11
39.790681
 21
126.980018
 31
0.0
  0
LINE
  5
5D
100
AcDbEntity
  8
LAYER_1
 62
     7
100
AcDbLine
 10
66.435394
 20
124.32385
 30
0.0
 11
39.692323
 21
151.06692
 31
0.0
  0
LINE
  5
5C
100
AcDbEntity
  8
LAYER_1
 62
     7
100
AcDbLine
 10
66.367181
 20
125.724626
 30
0.0
 11
39.741588
 21
152.350391
 31
0.0
  0
LINE
  5
5B
100
AcDbEntity
  8
LAYER_1
 62
     7
100
AcDbLine
 10
66.357707
 20
127.066835
 30
0.0
 11
39.790681
 21
153.634033
 31
0.0
  0
LINE
  5
5A
100
AcDbEntity
  8
LAYER_1
 62
     7
100
AcDbLine
 10
66.435394
 20
150.977865
 30
0.0
 11
39.692323
 21
177.720763
 31
0.0
  0
LINE
  5
59
100
AcDbEntity
  8
LAYER_1
 62
     7
100
AcDbLine
 10
66.367181
 20
152.378813
 30
0.0
 11
39.741588
 21
179.004233
 31
0.0
  0
LINE
  5
58
100
AcDbEntity
  8
LAYER_1
 62
     7
100
AcDbLine
 10
66.357707
 20
153.721022
 30
0.0
 11
39.790681
 21
180.287531
 31
0.0
  0
LINE
  5
57
100
AcDbEntity
  8
LAYER_1
 62
     7
100
AcDbLine
 10
116.86384
 20
102.518807
 30
0.0
 11
74.754438
 21
102.518807
 31
0.0
  0
LINE
  5
56
100
AcDbEntity
  8
LAYER_1
 62
     7
100
AcDbLine
 10
142.927365
 20
102.518807
 30
0.0
 11
121.448229
 21
102.518807
 31
0.0
  0
LINE
  5
55
100
AcDbEntity
  8
LAYER_1
 62
     7
100
AcDbLine
 10
186.335913
 20
102.465063
 30
0.0
 11
148.568709
 21
102.465063
 31
0.0
  0
LINE
  5
54
100
AcDbEntity
  8
LAYER_1
 62
     7
100
AcDbLine
 10
87.60585
 20
108.566672
 30
0.0
 11
68.394792
 21
108.566672
 31
0.0
  0
LINE
  5
53
100
AcDbEntity
  8
LAYER_1
 62
     7
100
AcDbLine
 10
186.334535
 20
108.566672
 30
0.0
 11
91.005642
 21
108.566672
 31
0.0
  0
SPLINE
  5
52
100
AcDbEntity
  8
LAYER_1
 62
     7
100
AcDbSpline
210
0.0
220
0.0
230
1.0
 70
     8
 71
     3
 72
    26
 73
    22
 74
     0
 42
0.00000001
 43
0.00000001
 40
0.0
 40
0.0
 40
0.0
 40
0.0
 40
1.0
 40
1.0
 40
1.0
 40
2.0
 40
2.0
 40
2.0
 40
3.0
 40
3.0
 40
3.0
 40
4.0
 40
4.0
 40
4.0
 40
5.0
 40
5.0
 40
5.0
 40
6.0
 40
6.0
 40
6.0
 40
7.0
 40
7.0
 40
7.0
 40
7.0
 10
186.33729112413192
 20
97.846568467881937
 30
0.0
 10
186.33729112413192
 20
97.846568467881937
 30
0.0
 10
72.64724527994791
 20
97.846568467881937
 30
0.0
 10
72.64724527994791
 20
97.846568467881937
 30
0.0
 10
72.64724527994791
 20
97.846568467881937
 30
0.0
 10
68.269045681423606
 20
102.0561306423611
 30
0.0
 10
68.269045681423606
 20
102.0561306423611
 30
0.0
 10
68.269045681423606
 20
102.0561306423611
 30
0.0
 10
68.231666395399301
 20
170.46229112413192
 30
0.0
 10
68.231666395399301
 20
170.46229112413192
 30
0.0
 10
67.951580132378467
 20
171.14734836154511
 30
0.0
 10
67.256704372829859
 20
171.56885579427083
 30
0.0
 10
66.519798448350684
 20
171.50081515842012
 30
0.0
 10
66.519798448350684
 20
171.50081515842012
 30
0.0
 10
66.525827365451377
 20
101.33541666666666
 30
0.0
 10
66.525827365451377
 20
101.33541666666666
 30
0.0
 10
66.525827365451377
 20
101.33541666666666
 30
0.0
 10
71.878472222222214
 20
96.103350151909709
 30
0.0
 10
71.878472222222214
 20
96.103350151909709
 30
0.0
 10
71.878472222222214
 20
96.103350151909709
 30
0.0
 10
186.33729112413192
 20
96.103350151909709
 30
0.0
 10
186.33729112413192
 20
96.103350151909709
 30
0.0
  0
POLYLINE
  5
4C
100
AcDbEntity
  8
LAYER_1
 62
     7
100
AcDb2dPolyline
 66
     1
 10
0.0
 20
0.0
 30
0.0
  0
VERTEX
  5
4D
100
AcDbEntity
  8
LAYER_1
 62
     7
100
AcDbVertex
100
AcDb2dVertex
 10
42.408264
 20
197.42068
 30
0.0
  0
VERTEX
  5
4E
100
AcDbEntity
  8
LAYER_1
 62
     7
100
AcDbVertex
100
AcDb2dVertex
 10
42.401029
 20
184.630763
 30
0.0
  0
VERTEX
  5
4F
100
AcDbEntity
  8
LAYER_1
 62
     7
100
AcDbVertex
100
AcDb2dVertex
 10
42.408264
 20
154.978309
 30
0.0
  0
VERTEX
  5
50
100
AcDbEntity
  8
LAYER_1
 62
     7
100
AcDbVertex
100
AcDb2dVertex
 10
42.408264
 20
71.327601
 30
0.0
  0
SEQEND
  5
51
100
AcDbEntity
  8
LAYER_1
 62
     7
  0
MTEXT
  5
4B
100
AcDbEntity
  8
LAYER_1
 62
     7
100
AcDbMText
 10
21.65545
 20
129.174544
 30
0.0
 40
2.637985
 41
0.0
 71
     1
 72
     2
  1
\W0.50;\fMS Gothic|b0|i0|c128;水上400以上
  7
KANJISTD
210
0.0
220
0.0
230
1.0
 11
0.0
 21
1.0
 31
0.0
 73
     1
 44
1.0
  0
LINE
  5
4A
100
AcDbEntity
  8
LAYER_1
 62
     7
100
AcDbLine
 10
186.278725
 20
98.323025
 30
0.0
 11
74.656597
 21
98.323025
 31
0.0
  0
MTEXT
  5
49
100
AcDbEntity
  8
LAYER_1
 62
     7
100
AcDbMText
 10
19.220015
 20
208.857095
 30
0.0
 40
2.637985
 41
0.0
 71
     1
 72
     2
  1
\W0.50;\fMS Gothic|b0|i0|c128;ゴムアスファルト系シール材
  7
KANJISTD
210
0.0
220
0.0
230
1.0
 11
1.000001
 21
0.0
 31
0.0
 73
     1
 44
1.0
  0
MTEXT
  5
48
100
AcDbEntity
  8
LAYER_1
 62
     7
100
AcDbMText
 10
179.087432
 20
131.264759
 30
0.0
 40
2.637985
 41
0.0
 71
     1
 72
     2
  1
\W0.50;\fMS Gothic|b0|i0|c128;ポリエチレンフィルム(t=0.15)
  7
KANJISTD
210
0.0
220
0.0
230
1.0
 11
1.000001
 21
0.0
 31
0.0
 73
     1
 44
1.0
  0
MTEXT
  5
47
100
AcDbEntity
  8
LAYER_1
 62
     7
100
AcDbMText
 10
16.464628
 20
228.081041
 30
0.0
 40
4.522249
 41
0.0
 71
     1
 72
     2
  1
\W0.50;\fMS Gothic|b0|i0|c128;●あご下タイプ　直取付方式　
  7
KANJISTD
210
0.0
220
0.0
230
1.0
 11
1.000001
 21
0.0
 31
0.0
 73
     1
 44
1.0
  0
INSERT
  5
33
100
AcDbEntity
  8
LAYER_1
 62
     7
100
AcDbBlockReference
  2
AI9-BLK1
 10
70.10554
 20
103.717183
 30
0.0
  0
POLYLINE
  5
2A
100
AcDbEntity
  8
レイヤー_1
 62
     7
100
AcDb2dPolyline
 66
     1
 10
0.0
 20
0.0
 30
0.0
 70
     1
  0
VERTEX
  5
2B
100
AcDbEntity
  8
レイヤー_1
 62
     7
100
AcDbVertex
100
AcDb2dVertex
 10
114.991431
 20
236.871847
 30
0.0
  0
VERTEX
  5
2C
100
AcDbEntity
  8
レイヤー_1
 62
     7
100
AcDbVertex
100
AcDb2dVertex
 10
114.991431
 20
247.576619
 30
0.0
  0
VERTEX
  5
2D
100
AcDbEntity
  8
レイヤー_1
 62
     7
100
AcDbVertex
100
AcDb2dVertex
 10
5.022777
 20
247.576619
 30
0.0
  0
VERTEX
  5
2E
100
AcDbEntity
  8
レイヤー_1
 62
     7
100
AcDbVertex
100
AcDb2dVertex
 10
5.022777
 20
236.871847
 30
0.0
  0
SEQEND
  5
2F
100
AcDbEntity
  8
レイヤー_1
 62
     7
  0
MTEXT
  5
29
100
AcDbEntity
  8
レイヤー_1
 62
     7
100
AcDbMText
 10
9.35843
 20
245.237132
 30
0.0
 40
5.334635
 41
0.0
 71
     1
 72
     2
  1
\W0.50;\fMS Gothic|b0|i0|c128;■乾式保護工法標準納まり詳細図
  7
KANJISTD
210
0.0
220
0.0
230
1.0
 11
1.000001
 21
0.0
 31
0.0
 73
     1
 44
1.0
  0
ENDSEC
  0
SECTION
  2
OBJECTS
  0
DICTIONARY
  5
19
100
AcDbDictionary
280
     0
281
     1
  3
ACAD_GROUP
350
1A
  3
ACAD_MLINESTYLE
350
1B
  3
ACAD_LAYOUT
350
1E
  3
ACAD_PLOTSETTINGS
350
22
  3
ACAD_PLOTSTYLENAME
350
1F
  3
ACAD_WIPEOUT_VARS
350
23
  0
DICTIONARY
  5
1A
102
{ACAD_REACTORS
330
19
102
}
100
AcDbDictionary
280
     0
281
     1
  0
DICTIONARY
  5
1B
102
{ACAD_REACTORS
330
19
102
}
100
AcDbDictionary
280
     0
281
     1
  3
Standard
350
1C
  0
MLINESTYLE
  5
1C
102
{ACAD_REACTORS
330
1B
102
}
100
AcDbMlineStyle
  2
Standard
 70
     0
  3

 62
     0
 51
90.0
 52
90.0
 71
     2
 49
0.5
 62
   256
  6
BYLAYER
 49
-0.5
 62
   256
  6
BYLAYER
  0
ACDBDICTIONARYWDFLT
  5
1F
102
{ACAD_REACTORS
330
19
102
}
100
AcDbDictionary
281
     1
  3
Normal
350
1D
100
AcDbDictionaryWithDefault
340
1D
  0
ACDBPLACEHOLDER
  5
1D
102
{ACAD_REACTORS
330
1F
102
}
  0
LAYOUT
  5
20
102
{ACAD_REACTORS
330
1E
102
}
100
AcDbPlotSettings
  1

  2

  4

  6

 40
0.0
 41
0.0
 42
0.0
 43
0.0
 44
0.0
 45
0.0
 46
0.0
 47
0.0
 48
0.0
 49
0.0
140
0.0
141
0.0
142
1.0
143
1.0
 70
  1024
 72
     0
 73
     0
 74
     0
  7

 75
     0
147
1.0
148
0.0
149
0.0
100
AcDbLayout
  1
Model
 70
     0
 71
     0
 10
0.0
 20
0.0
 11
0.0
 21
0.0
 12
0.0
 22
0.0
 32
0.0
 14
0.0
 24
0.0
 34
0.0
 15
0.0
 25
0.0
 35
0.0
146
0.0
 13
0.0
 23
0.0
 33
0.0
 16
0.0
 26
0.0
 36
0.0
 17
0.0
 27
0.0
 37
0.0
 76
     0
330
A
331
0
345
0
346
0
  0
LAYOUT
  5
21
102
{ACAD_REACTORS
330
1E
102
}
100
AcDbPlotSettings
  1

  2

  4

  6

 40
0.0
 41
0.0
 42
0.0
 43
0.0
 44
0.0
 45
0.0
 46
0.0
 47
0.0
 48
0.0
 49
0.0
140
0.0
141
0.0
142
1.0
143
1.0
 70
     0
 72
     0
 73
     0
 74
     0
  7

 75
     0
147
1.0
148
0.0
149
0.0
100
AcDbLayout
  1
Layout1
 70
     0
 71
     0
 10
0.0
 20
0.0
 11
0.0
 21
0.0
 12
0.0
 22
0.0
 32
0.0
 14
0.0
 24
0.0
 34
0.0
 15
0.0
 25
0.0
 35
0.0
146
0.0
 13
0.0
 23
0.0
 33
0.0
 16
0.0
 26
0.0
 36
0.0
 17
0.0
 27
0.0
 37
0.0
 76
     0
330
B
331
0
345
0
346
0
  0
DICTIONARY
  5
1E
102
{ACAD_REACTORS
330
19
102
}
100
AcDbDictionary
280
     0
281
     1
  3
Layout1
350
21
  3
Model
350
20
  0
DICTIONARY
  5
22
102
{ACAD_REACTORS
330
19
102
}
100
AcDbDictionary
280
     0
281
     1
  0
WIPEOUTVARIABLES
  5
23
100
AcDbWipeoutVariables
 70
     1
  0
ENDSEC
  0
EOF
