  0
SECTION
  2
HEADER
  9
$ACADVER
  1
AC1015
  9
$ACADMAINTVER
 70
     6
  9
$DWGCODEPAGE
  3
ANSI_932
  9
$INSBASE
 10
0.0
 20
0.0
 30
0.0
  9
$EXTMIN
 10
4.7625
 20
57.844876
 30
1.000000E+20
  9
$EXTMAX
 10
203.905556
 20
238.664674
 30
-1.000000E+20
  9
$LIMMIN
 10
4.7625
 20
57.844876
  9
$LIMMAX
 10
203.905556
 20
238.664674
  9
$ORTHOMODE
 70
     0
  9
$REGENMODE
 70
     1
  9
$FILLMODE
 70
     1
  9
$QTEXTMODE
 70
     0
  9
$MIRRTEXT
 70
     1
  9
$LTSCALE
 40
1.0
  9
$ATTMODE
 70
     1
  9
$TEXTSIZE
 40
0.2
  9
$TRACEWID
 40
0.05
  9
$TEXTSTYLE
  7
Standard
  9
$CLAYER
  8
0
  9
$CELTYPE
  6
Continuous
  9
$CECOLOR
 62
   256
  9
$CELTSCALE
 40
1.0
  9
$DISPSILH
 70
     0
  9
$DIMSCALE
 40
1.0
  9
$DIMASZ
 40
0.18
  9
$DIMEXO
 40
0.0625
  9
$DIMDLI
 40
0.38
  9
$DIMRND
 40
0.0
  9
$DIMDLE
 40
0.0
  9
$DIMEXE
 40
0.18
  9
$DIMTP
 40
0.0
  9
$DIMTM
 40
0.0
  9
$DIMTXT
 40
0.18
  9
$DIMCEN
 40
0.09
  9
$DIMTSZ
 40
0.0
  9
$DIMTOL
 70
     0
  9
$DIMLIM
 70
     0
  9
$DIMTIH
 70
     1
  9
$DIMTOH
 70
     1
  9
$DIMSE1
 70
     0
  9
$DIMSE2
 70
     0
  9
$DIMTAD
 70
     0
  9
$DIMZIN
 70
     0
  9
$DIMBLK
  1

  9
$DIMASO
 70
     1
  9
$DIMSHO
 70
     1
  9
$DIMPOST
  1

  9
$DIMAPOST
  1

  9
$DIMALT
 70
     0
  9
$DIMALTD
 70
     2
  9
$DIMALTF
 40
25.4
  9
$DIMLFAC
 40
1.0
  9
$DIMTOFL
 70
     0
  9
$DIMTVP
 40
0.0
  9
$DIMTIX
 70
     0
  9
$DIMSOXD
 70
     0
  9
$DIMSAH
 70
     0
  9
$DIMBLK1
  1

  9
$DIMBLK2
  1

  9
$DIMSTYLE
  2
Standard
  9
$DIMCLRD
 70
     0
  9
$DIMCLRE
 70
     0
  9
$DIMCLRT
 70
     0
  9
$DIMTFAC
 40
1.0
  9
$DIMGAP
 40
0.09
  9
$DIMJUST
 70
     0
  9
$DIMSD1
 70
     0
  9
$DIMSD2
 70
     0
  9
$DIMTOLJ
 70
     1
  9
$DIMTZIN
 70
     0
  9
$DIMALTZ
 70
     0
  9
$DIMALTTZ
 70
     0
  9
$DIMUPT
 70
     0
  9
$DIMDEC
 70
     4
  9
$DIMTDEC
 70
     4
  9
$DIMALTU
 70
     2
  9
$DIMALTTD
 70
     2
  9
$DIMTXSTY
  7
Standard
  9
$DIMAUNIT
 70
     0
  9
$DIMADEC
 70
     0
  9
$DIMALTRND
 40
0.0
  9
$DIMAZIN
 70
     0
  9
$DIMDSEP
 70
     0
  9
$DIMATFIT
 70
     3
  9
$DIMFRAC
 70
     0
  9
$DIMLDRBLK
  1

  9
$DIMLUNIT
 70
     2
  9
$DIMLWD
 70
     0
  9
$DIMLWE
 70
     0
  9
$DIMTMOVE
 70
     0
  9
$LUNITS
 70
     2
  9
$LUPREC
 70
     4
  9
$SKETCHINC
 40
0.1
  9
$FILLETRAD
 40
0.0
  9
$AUNITS
 70
     0
  9
$AUPREC
 70
     0
  9
$MENU
  1
acad
  9
$ELEVATION
 40
0.0
  9
$PELEVATION
 40
0.0
  9
$THICKNESS
 40
0.0
  9
$LIMCHECK
 70
     0
  9
$CHAMFERA
 40
0.0
  9
$CHAMFERB
 40
0.0
  9
$CHAMFERC
 40
0.0
  9
$CHAMFERD
 40
0.0
  9
$SKPOLY
 70
     0
  9
$TDCREATE
 40
0.000000000
  9
$TDUCREATE
 40
0.000000000
  9
$TDUPDATE
 40
0.000000000
  9
$TDUUPDATE
 40
0.000000000
  9
$TDINDWG
 40
0.0000000000
  9
$TDUSRTIMER
 40
0.0000000000
  9
$USRTIMER
 70
     1
  9
$ANGBASE
 50
0.0
  9
$ANGDIR
 70
     0
  9
$PDMODE
 70
     0
  9
$PDSIZE
 40
0.0
  9
$PLINEWID
 40
0.0
  9
$SPLFRAME
 70
     0
  9
$SPLINETYPE
 70
     6
  9
$SPLINESEGS
 70
     8
  9
$HANDSEED
  5
1FC
  9
$SURFTAB1
 70
     6
  9
$SURFTAB2
 70
     6
  9
$SURFTYPE
 70
     6
  9
$SURFU
 70
     6
  9
$SURFV
 70
     6
  9
$UCSBASE
  2

  9
$UCSNAME
  2

  9
$UCSORG
 10
0.0
 20
0.0
 30
0.0
  9
$UCSXDIR
 10
1.0
 20
0.0
 30
0.0
  9
$UCSYDIR
 10
0.0
 20
1.0
 30
0.0
  9
$UCSORTHOREF
  2

  9
$UCSORTHOVIEW
 70
     0
  9
$UCSORGTOP
 10
0.0
 20
0.0
 30
0.0
  9
$UCSORGBOTTOM
 10
0.0
 20
0.0
 30
0.0
  9
$UCSORGLEFT
 10
0.0
 20
0.0
 30
0.0
  9
$UCSORGRIGHT
 10
0.0
 20
0.0
 30
0.0
  9
$UCSORGFRONT
 10
0.0
 20
0.0
 30
0.0
  9
$UCSORGBACK
 10
0.0
 20
0.0
 30
0.0
  9
$PUCSBASE
  2

  9
$PUCSNAME
  2

  9
$PUCSORG
 10
0.0
 20
0.0
 30
0.0
  9
$PUCSXDIR
 10
1.0
 20
0.0
 30
0.0
  9
$PUCSYDIR
 10
0.0
 20
1.0
 30
0.0
  9
$PUCSORTHOREF
  2

  9
$PUCSORTHOVIEW
 70
     0
  9
$PUCSORGTOP
 10
0.0
 20
0.0
 30
0.0
  9
$PUCSORGBOTTOM
 10
0.0
 20
0.0
 30
0.0
  9
$PUCSORGLEFT
 10
0.0
 20
0.0
 30
0.0
  9
$PUCSORGRIGHT
 10
0.0
 20
0.0
 30
0.0
  9
$PUCSORGFRONT
 10
0.0
 20
0.0
 30
0.0
  9
$PUCSORGBACK
 10
0.0
 20
0.0
 30
0.0
  9
$USERI1
 70
     0
  9
$USERI2
 70
     0
  9
$USERI3
 70
     0
  9
$USERI4
 70
     0
  9
$USERI5
 70
     0
  9
$USERR1
 40
0.0
  9
$USERR2
 40
0.0
  9
$USERR3
 40
0.0
  9
$USERR4
 40
0.0
  9
$USERR5
 40
0.0
  9
$WORLDVIEW
 70
     1
  9
$SHADEDGE
 70
     3
  9
$SHADEDIF
 70
    70
  9
$TILEMODE
 70
     1
  9
$MAXACTVP
 70
    16
  9
$PINSBASE
 10
0.0
 20
0.0
 30
0.0
  9
$PLIMCHECK
 70
     0
  9
$PEXTMIN
 10
1.000000E+20
 20
1.000000E+20
 30
1.000000E+20
  9
$PEXTMAX
 10
-1.000000E+20
 20
-1.000000E+20
 30
-1.000000E+20
  9
$PLIMMIN
 10
0.0
 20
0.0
  9
$PLIMMAX
 10
12.0
 20
9.0
  9
$UNITMODE
 70
     0
  9
$VISRETAIN
 70
     0
  9
$PLINEGEN
 70
     1
  9
$PSLTSCALE
 70
     0
  9
$TREEDEPTH
 70
  3020
  9
$CMLSTYLE
  2
Standard
  9
$CMLJUST
 70
     0
  9
$CMLSCALE
 40
1.0
  9
$PROXYGRAPHICS
 70
     0
  9
$MEASUREMENT
 70
     0
  9
$CELWEIGHT
370
     0
  9
$ENDCAPS
280
     0
  9
$JOINSTYLE
280
     0
  9
$LWDISPLAY
290
     0
  9
$INSUNITS
 70
     0
  9
$HYPERLINKBASE
  1

  9
$XEDIT
290
     1
  9
$CEPSNTYPE
380
     0
  9
$PSTYLEMODE
290
     1
  9
$FINGERPRINTGUID
  2

  9
$VERSIONGUID
  2

  9
$EXTNAMES
290
     1
  9
$PSVPSCALE
 40
0.0
  0
ENDSEC
  0
SECTION
  2
CLASSES
  0
CLASS
  1
LWPOLYLINE
  2
AcDbPolyline
  3
"AutoCAD"
 90
        0
280
     0
281
     1
  0
CLASS
  1
IMAGE
  2
AcDbRasterImage
  3
ISM
 90
      127
280
     0
281
     1
  0
CLASS
  1
OLE2FRAME
  2
AcDbOle2Frame
  3
""
 90
        0
280
     0
281
     1
  0
CLASS
  1
HATCH
  2
AcDbHatch
  3
"ACAD_SEDONA"
 90
        0
280
     0
281
     1
  0
CLASS
  1
DICTIONARYVAR
  2
AcDbDictionaryVar
  3
"AutoCAD"
 90
        0
280
     0
281
     0
  0
CLASS
  1
RASTERVARIABLES
  2
AcDbRasterVariables
  3
ISM
 90
        0
280
     0
281
     0
  0
CLASS
  1
IMAGEDEF
  2
AcDbRasterImageDef
  3
ISM
 90
        0
280
     0
281
     0
  0
CLASS
  1
IMAGEDEF_REACTOR
  2
AcDbRasterImageDefReactor
  3
ISM
 90
        1
280
     0
281
     0
  0
CLASS
  1
IDBUFFER
  2
AcDbIdBuffer
  3
"Acad"
 90
        0
280
     0
281
     0
  0
CLASS
  1
SPATIAL_FILTER
  2
AcDbSpatialFilter
  3
"Acad"
 90
        0
280
     0
281
     0
  0
CLASS
  1
XRECORD
  2
AcDbXrecord
  3
"<Built In>"
 90
        0
280
     0
281
     0
  0
CLASS
  1
SORTENTSTABLE
  2
AcDbSortentsTable
  3
"AutoCAD"
 90
        0
280
     0
281
     0
  0
CLASS
  1
LAYER_INDEX
  2
AcDbLayerIndex
  3
"Acad"
 90
        0
280
     0
281
     0
  0
CLASS
  1
SPATIAL_INDEX
  2
AcDbSpatialIndex
  3
"Acad"
 90
        0
280
     0
281
     0
  0
CLASS
  1
OBJECT_PTR
  2
CAseDLPNTableRecord
  3
"ASE-LPNTableRecord"
 90
        1
280
     0
281
     0
  0
CLASS
  1
LAYOUT
  2
AcDbLayout
  3
"AutoCAD 2000"
 90
        1
280
     0
281
     0
  0
CLASS
  1
PLOTSETTINGS
  2
AcDbPlotSettings
  3
"AutoCAD 2000"
 90
        1
280
     0
281
     0
  0
CLASS
  1
ACDBDICTIONARYWDFLT
  2
AcDbDictionaryWithDefault
  3
"AutoCAD 2000"
 90
        1
280
     0
281
     0
  0
CLASS
  1
ACDBPLACEHOLDER
  2
AcDbPlaceHolder
  3
"AutoCAD 2000"
 90
        1
280
     0
281
     0
  0
CLASS
  1
VBA_PROJECT
  2
AcDbVbaProject
  3
"acadvba"
 90
        1
280
     0
281
     0
  0
CLASS
  1
WIPEOUT
  2
AcDbWipeout
  3
WipeOut|AutoCAD Express Tool|expresstools@autodesk.com
 90
      127
280
     0
281
     1
  0
CLASS
  1
WIPEOUTVARIABLES
  2
AcDbWipeoutVariables
  3
WipeOut|AutoCAD Express Tool|expresstools@autodesk.com
 90
        0
280
     0
281
     0
  0
CLASS
  1
RTEXT
  2
RText
  3
RText|AutoCAD Express Tool|expresstools@autodesk.com
 90
        0
280
     0
281
     1
  0
CLASS
  1
ARCALIGNEDTEXT
  2
AcDbArcAlignedText
  3
ATEXT|AutoCAD Express Tool|expresstools@autodesk.com
 90
        0
280
     0
281
     1
  0
ENDSEC
  0
SECTION
  2
TABLES
  0
TABLE
  2
VPORT
  5
7
100
AcDbSymbolTable
 70
     1
  0
VPORT
  5
15
100
AcDbSymbolTableRecord
100
AcDbViewportTableRecord
  2
*ACTIVE
 70
     0
 10
0.0
 20
0.0
 11
1.0
 21
1.0
 12
6.591288
 22
4.579184
 13
0.0
 23
0.0
 14
1.0
 24
1.0
 15
0.0
 25
0.0
 16
0.0
 26
0.0
 36
1.0
 17
0.0
 27
0.0
 37
0.0
 40
9.158369
 41
0.688564
 42
50.0
 43
0.0
 44
0.0
 50
0.0
 51
0.0
 71
     0
 72
   100
 73
     1
 74
     1
 75
     0
 76
     0
 77
     0
 78
     0
281
     0
 65
     0
110
0.0
120
0.0
130
0.0
111
1.0
121
0.0
131
0.0
112
0.0
122
1.0
132
0.0
345
0
346
0
 79
     0
146
0.0
  0
ENDTAB
  0
TABLE
  2
LTYPE
  5
4
100
AcDbSymbolTable
 70
     3
  0
LTYPE
  5
11
100
AcDbSymbolTableRecord
100
AcDbLinetypeTableRecord
  2
ByBlock
 70
    64
  3

 72
    65
 73
     0
 40
0.0
  0
LTYPE
  5
12
100
AcDbSymbolTableRecord
100
AcDbLinetypeTableRecord
  2
ByLayer
 70
    64
  3

 72
    65
 73
     0
 40
0.0
  0
LTYPE
  5
13
100
AcDbSymbolTableRecord
100
AcDbLinetypeTableRecord
  2
Continuous
 70
    64
  3
Solid line
 72
    65
 73
     0
 40
0.0
  0
ENDTAB
  0
TABLE
  2
LAYER
  5
2
100
AcDbSymbolTable
 70
     4
  0
LAYER
  5
14
100
AcDbSymbolTableRecord
100
AcDbLayerTableRecord
  2
0
 70
     0
 62
     7
  6
Continuous
290
     1
370
    -3
390
1D
  0
LAYER
  5
28
100
AcDbSymbolTableRecord
100
AcDbLayerTableRecord
  2
レイヤー_1
 70
     0
 62
   160
  6
Continuous
290
     1
370
    -3
390
1F
  0
LAYER
  5
29
100
AcDbSymbolTableRecord
100
AcDbLayerTableRecord
  2
0
 70
     0
 62
     7
  6
Continuous
290
     1
370
    -3
390
1F
  0
LAYER
  5
2A
100
AcDbSymbolTableRecord
100
AcDbLayerTableRecord
  2
LAYER_1
 70
     0
 62
     7
  6
Continuous
290
     1
370
    -3
390
1F
  0
ENDTAB
  0
TABLE
  2
STYLE
  5
3
100
AcDbSymbolTable
 70
     5
  0
STYLE
  5
17
100
AcDbSymbolTableRecord
100
AcDbTextStyleTableRecord
  2
Standard
 70
     0
 40
0.0
 41
1.0
 50
0.0
 71
     0
 42
0.0
  3
txt
  4

  0
STYLE
  5
24
100
AcDbSymbolTableRecord
100
AcDbTextStyleTableRecord
  2
STD
 70
     0
 40
0.0
 41
1.0
 50
0.0
 71
     0
 42
0.0
  3
txt
  4

  0
STYLE
  5
25
100
AcDbSymbolTableRecord
100
AcDbTextStyleTableRecord
  2
TATESTD
 70
     4
 40
0.0
 41
1.0
 50
0.0
 71
     0
 42
0.0
  3
txt
  4

  0
STYLE
  5
26
100
AcDbSymbolTableRecord
100
AcDbTextStyleTableRecord
  2
KANJISTD
 70
     0
 40
0.0
 41
1.0
 50
0.0
 71
     0
 42
0.0
  3
txt
  4
extfont
  0
STYLE
  5
27
100
AcDbSymbolTableRecord
100
AcDbTextStyleTableRecord
  2
KANJITATE
 70
     4
 40
0.0
 41
1.0
 50
0.0
 71
     0
 42
0.0
  3
txt
  4
extfont
  0
ENDTAB
  0
TABLE
  2
VIEW
  5
5
100
AcDbSymbolTable
 70
     0
  0
ENDTAB
  0
TABLE
  2
UCS
  5
6
100
AcDbSymbolTable
 70
     0
  0
ENDTAB
  0
TABLE
  2
APPID
  5
8
100
AcDbSymbolTable
 70
     1
  0
APPID
  5
16
100
AcDbSymbolTableRecord
100
AcDbRegAppTableRecord
  2
ACAD
 70
     0
  0
ENDTAB
  0
TABLE
  2
DIMSTYLE
  5
9
100
AcDbSymbolTable
 70
     1
100
AcDbDimStyleTable
 71
     0
  0
DIMSTYLE
105
18
100
AcDbSymbolTableRecord
100
AcDbDimStyleTableRecord
  2
Standard
 70
     0
  3

  4

 40
1.0
 41
0.18
 42
0.0625
 43
0.38
 44
0.18
 45
0.0
 46
0.0
 47
0.0
 48
0.0
 71
     0
 72
     0
 73
     1
 74
     1
 75
     0
 76
     0
 77
     0
 78
     0
 79
     0
140
0.18
141
0.09
142
0.0
143
25.4
144
1.0
145
0.0
146
1.0
147
0.09
148
0.0
170
     0
171
     2
172
     0
173
     0
174
     0
175
     0
176
     0
177
     0
178
     0
179
     0
271
     4
272
     4
273
     2
274
     2
275
     0
276
     0
277
     2
278
    46
279
     0
280
     0
281
     0
282
     0
283
     1
284
     0
285
     0
286
     0
288
     0
340
17
341
0
342
0
343
0
344
0
371
    -2
372
    -2
  0
ENDTAB
  0
TABLE
  2
BLOCK_RECORD
  5
1
100
AcDbSymbolTable
 70
     1
  0
BLOCK_RECORD
  5
A
100
AcDbSymbolTableRecord
100
AcDbBlockTableRecord
  2
*MODEL_SPACE
340
20
  0
BLOCK_RECORD
  5
B
100
AcDbSymbolTableRecord
100
AcDbBlockTableRecord
  2
*PAPER_SPACE
340
21
  0
BLOCK_RECORD
  5
2B
100
AcDbSymbolTableRecord
100
AcDbBlockTableRecord
  2
AI9-BLK1
340
0
  0
ENDTAB
  0
ENDSEC
  0
SECTION
  2
BLOCKS
  0
BLOCK
  5
D
100
AcDbEntity
  8
0
100
AcDbBlockBegin
  2
*MODEL_SPACE
 70
     0
 10
0.0
 20
0.0
 30
0.0
  3
*MODEL_SPACE
  1

  0
ENDBLK
  5
E
100
AcDbEntity
  8
0
100
AcDbBlockEnd
  0
BLOCK
  5
F
100
AcDbEntity
 67
     1
  8
0
100
AcDbBlockBegin
  2
*PAPER_SPACE
 70
     0
 10
0.0
 20
0.0
 30
0.0
  3
*PAPER_SPACE
  1

  0
ENDBLK
  5
10
100
AcDbEntity
 67
     1
  8
0
100
AcDbBlockEnd
  0
BLOCK
  5
2D
100
AcDbEntity
  8
LAYER_1
 62
     7
100
AcDbBlockBegin
  2
AI9-BLK1
 70
     0
 10
0.0
 20
0.0
 30
0.0
  3
AI9-BLK1
  1

  0
LINE
  5
3E
100
AcDbEntity
  8
LAYER_1
 62
     7
100
AcDbLine
 10
0.203088
 20
4.786443
 30
0.0
 11
-1.664153
 21
2.918857
 31
0.0
  0
LINE
  5
3D
100
AcDbEntity
  8
LAYER_1
 62
     7
100
AcDbLine
 10
1.698604
 20
2.66013
 30
0.0
 11
-1.754759
 21
-0.793233
 31
0.0
  0
LINE
  5
3C
100
AcDbEntity
  8
LAYER_1
 62
     7
100
AcDbLine
 10
1.719792
 20
-0.942061
 30
0.0
 11
-0.289733
 21
-2.951241
 31
0.0
  0
LINE
  5
3B
100
AcDbEntity
  8
LAYER_1
 62
     7
100
AcDbLine
 10
1.684307
 20
-4.264511
 30
0.0
 11
1.367186
 21
-4.582838
 31
0.0
  0
LINE
  5
3A
100
AcDbEntity
  8
LAYER_1
 62
     7
100
AcDbLine
 10
1.711696
 20
4.484309
 30
0.0
 11
-1.749764
 21
1.022677
 31
0.0
  0
LINE
  5
39
100
AcDbEntity
  8
LAYER_1
 62
     7
100
AcDbLine
 10
1.693264
 20
0.842498
 30
0.0
 11
-1.211812
 21
-2.062751
 31
0.0
  0
LINE
  5
38
100
AcDbEntity
  8
LAYER_1
 62
     7
100
AcDbLine
 10
1.689647
 20
-2.448602
 30
0.0
 11
0.453719
 21
-3.684357
 31
0.0
  0
LINE
  5
37
100
AcDbEntity
  8
LAYER_1
 62
     7
100
AcDbLine
 10
-0.679717
 20
4.915634
 30
0.0
 11
1.699293
 21
2.536452
 31
0.0
  0
LINE
  5
36
100
AcDbEntity
  8
LAYER_1
 62
     7
100
AcDbLine
 10
-1.760272
 20
0.366386
 30
0.0
 11
1.702394
 21
-3.096624
 31
0.0
  0
LINE
  5
35
100
AcDbEntity
  8
LAYER_1
 62
     7
100
AcDbLine
 10
-1.768195
 20
2.296673
 30
0.0
 11
1.704289
 21
-1.175294
 31
0.0
  0
LINE
  5
34
100
AcDbEntity
  8
LAYER_1
 62
     7
100
AcDbLine
 10
-1.758549
 20
4.070208
 30
0.0
 11
1.729266
 21
0.582049
 31
0.0
  0
POLYLINE
  5
2F
100
AcDbEntity
  8
LAYER_1
 62
     7
100
AcDb2dPolyline
 66
     1
 10
0.0
 20
0.0
 30
0.0
  0
VERTEX
  5
30
100
AcDbEntity
  8
LAYER_1
 62
     7
100
AcDbVertex
100
AcDb2dVertex
 10
1.77698
 20
-4.958354
 30
0.0
  0
VERTEX
  5
31
100
AcDbEntity
  8
LAYER_1
 62
     7
100
AcDbVertex
100
AcDb2dVertex
 10
1.77543
 20
4.958354
 30
0.0
  0
VERTEX
  5
32
100
AcDbEntity
  8
LAYER_1
 62
     7
100
AcDbVertex
100
AcDb2dVertex
 10
-1.726854
 20
4.892208
 30
0.0
  0
SEQEND
  5
33
100
AcDbEntity
  8
LAYER_1
 62
     7
  0
LINE
  5
2E
100
AcDbEntity
  8
LAYER_1
 62
     7
100
AcDbLine
 10
0.306441
 20
4.889796
 30
0.0
 11
-1.77698
 21
2.806203
 31
0.0
  0
ENDBLK
  5
3F
100
AcDbEntity
  8
LAYER_1
100
AcDbBlockEnd
  0
ENDSEC
  0
SECTION
  2
ENTITIES
  0
MTEXT
  5
1FB
100
AcDbEntity
  8
LAYER_1
 62
     7
100
AcDbMText
 10
49.42179
 20
146.624248
 30
0.0
 40
2.612367
 41
0.0
 71
     1
 72
     2
  1
\W0.50;\fMS Gothic|b0|i0|c128;押え金物
  7
KANJISTD
210
0.0
220
0.0
230
1.0
 11
1.000001
 21
0.0
 31
0.0
 73
     1
 44
1.0
  0
MTEXT
  5
1FA
100
AcDbEntity
  8
LAYER_1
 62
     7
100
AcDbMText
 10
76.812021
 20
177.715388
 30
0.0
 40
2.667331
 41
0.0
 71
     1
 72
     2
  1
\W0.50;\fMS Gothic|b0|i0|c128;(40以上)
  7
KANJISTD
210
0.0
220
0.0
230
1.0
 11
1.000001
 21
0.0
 31
0.0
 73
     1
 44
1.0
  0
POLYLINE
  5
1F4
100
AcDbEntity
  8
LAYER_1
 62
     7
100
AcDb2dPolyline
 66
     1
 10
0.0
 20
0.0
 30
0.0
  0
VERTEX
  5
1F5
100
AcDbEntity
  8
LAYER_1
 62
     7
100
AcDbVertex
100
AcDb2dVertex
 10
64.00953
 20
167.980272
 30
0.0
  0
VERTEX
  5
1F6
100
AcDbEntity
  8
LAYER_1
 62
     7
100
AcDbVertex
100
AcDb2dVertex
 10
23.840233
 20
167.980272
 30
0.0
  0
VERTEX
  5
1F7
100
AcDbEntity
  8
LAYER_1
 62
     7
100
AcDbVertex
100
AcDb2dVertex
 10
23.840233
 20
87.394493
 30
0.0
  0
VERTEX
  5
1F8
100
AcDbEntity
  8
LAYER_1
 62
     7
100
AcDbVertex
100
AcDb2dVertex
 10
64.484953
 20
87.394493
 30
0.0
  0
SEQEND
  5
1F9
100
AcDbEntity
  8
LAYER_1
 62
     7
  0
POLYLINE
  5
1EF
100
AcDbEntity
  8
LAYER_1
 62
     7
100
AcDb2dPolyline
 66
     1
 10
0.0
 20
0.0
 30
0.0
  0
VERTEX
  5
1F0
100
AcDbEntity
  8
LAYER_1
 62
     7
100
AcDbVertex
100
AcDb2dVertex
 10
23.316923
 20
89.347173
 30
0.0
  0
VERTEX
  5
1F1
100
AcDbEntity
  8
LAYER_1
 62
     7
100
AcDbVertex
100
AcDb2dVertex
 10
23.840233
 20
87.394493
 30
0.0
  0
VERTEX
  5
1F2
100
AcDbEntity
  8
LAYER_1
 62
     7
100
AcDbVertex
100
AcDb2dVertex
 10
24.363199
 20
89.347173
 30
0.0
  0
SEQEND
  5
1F3
100
AcDbEntity
  8
LAYER_1
 62
     7
  0
POLYLINE
  5
1EA
100
AcDbEntity
  8
LAYER_1
 62
     7
100
AcDb2dPolyline
 66
     1
 10
0.0
 20
0.0
 30
0.0
  0
VERTEX
  5
1EB
100
AcDbEntity
  8
LAYER_1
 62
     7
100
AcDbVertex
100
AcDb2dVertex
 10
24.363199
 20
165.892889
 30
0.0
  0
VERTEX
  5
1EC
100
AcDbEntity
  8
LAYER_1
 62
     7
100
AcDbVertex
100
AcDb2dVertex
 10
23.840233
 20
167.845569
 30
0.0
  0
VERTEX
  5
1ED
100
AcDbEntity
  8
LAYER_1
 62
     7
100
AcDbVertex
100
AcDb2dVertex
 10
23.317095
 20
165.892889
 30
0.0
  0
SEQEND
  5
1EE
100
AcDbEntity
  8
LAYER_1
 62
     7
  0
MTEXT
  5
1E9
100
AcDbEntity
  8
LAYER_1
 62
     7
100
AcDbMText
 10
20.440131
 20
121.182267
 30
0.0
 40
2.667331
 41
0.0
 71
     1
 72
     2
  1
\W0.50;\fMS Gothic|b0|i0|c128;水上400以上
  7
KANJISTD
210
0.0
220
0.0
230
1.0
 11
0.0
 21
1.0
 31
0.0
 73
     1
 44
1.0
  0
MTEXT
  5
1E8
100
AcDbEntity
  8
LAYER_1
 62
     7
100
AcDbMText
 10
5.587428
 20
61.002443
 30
0.0
 40
2.667331
 41
0.0
 71
     1
 72
     2
  1
\W0.50;\fMS Gothic|b0|i0|c128;(数字)は、参考寸法。
  7
KANJISTD
210
0.0
220
0.0
230
1.0
 11
1.000001
 21
0.0
 31
0.0
 73
     1
 44
1.0
  0
SPLINE
  5
1E7
100
AcDbEntity
  8
LAYER_1
 62
     7
100
AcDbSpline
210
0.0
220
0.0
230
1.0
 70
     8
 71
     3
 72
    17
 73
    13
 74
     0
 42
0.00000001
 43
0.00000001
 40
0.0
 40
0.0
 40
0.0
 40
0.0
 40
1.0
 40
1.0
 40
1.0
 40
2.0
 40
2.0
 40
2.0
 40
3.0
 40
3.0
 40
3.0
 40
4.0
 40
4.0
 40
4.0
 40
4.0
 10
67.623779296875
 20
158.36845567491318
 30
0.0
 10
67.421724446614576
 20
158.36707763671873
 30
0.0
 10
67.258254665798603
 20
158.20395236545139
 30
0.0
 10
67.256532118055546
 20
158.00189751519096
 30
0.0
 10
67.350755479600693
 20
157.75867377387152
 30
0.0
 10
67.622918023003464
 20
157.63620062934027
 30
0.0
 10
67.867347547743051
 20
157.7269788953993
 30
0.0
 10
67.945206705729163
 20
157.79725884331594
 30
0.0
 10
67.989992947048606
 20
157.89699435763887
 30
0.0
 10
67.990854220920127
 20
158.00189751519096
 30
0.0
 10
67.989303927951383
 20
158.20395236545139
 30
0.0
 10
67.825661892361111
 20
158.36707763671873
 30
0.0
 10
67.623779296875
 20
158.36845567491318
 30
0.0
  0
SPLINE
  5
1E6
100
AcDbEntity
  8
LAYER_1
 62
     7
100
AcDbSpline
210
0.0
220
0.0
230
1.0
 70
     8
 71
     3
 72
    17
 73
    13
 74
     0
 42
0.00000001
 43
0.00000001
 40
0.0
 40
0.0
 40
0.0
 40
0.0
 40
1.0
 40
1.0
 40
1.0
 40
2.0
 40
2.0
 40
2.0
 40
3.0
 40
3.0
 40
3.0
 40
4.0
 40
4.0
 40
4.0
 40
4.0
 10
175.89520670572915
 20
89.24313151041666
 30
0.0
 10
175.70986056857637
 20
89.244509548611106
 30
0.0
 10
175.55965440538193
 20
89.394715711805546
 30
0.0
 10
175.55827636718749
 20
89.580061848958323
 30
0.0
 10
175.64957139756942
 20
89.803304036458329
 30
0.0
 10
175.9027859157986
 20
89.911824544270829
 30
0.0
 10
176.12706163194443
 20
89.823974609374986
 30
0.0
 10
176.19320746527777
 20
89.759895833333331
 30
0.0
 10
176.23110351562499
 20
89.672045898437489
 30
0.0
 10
176.23213704427081
 20
89.580061848958323
 30
0.0
 10
176.23075900607637
 20
89.394715711805546
 30
0.0
 10
176.08089735243053
 20
89.244509548611106
 30
0.0
 10
175.89520670572915
 20
89.24313151041666
 30
0.0
  0
LINE
  5
1E5
100
AcDbEntity
  8
LAYER_1
 62
     7
100
AcDbLine
 10
186.498866
 20
89.513916
 30
0.0
 11
76.635632
 21
89.513916
 31
0.0
  0
LINE
  5
1E4
100
AcDbEntity
  8
LAYER_1
 62
     7
100
AcDbLine
 10
78.745753
 20
172.19793
 30
0.0
 11
78.745753
 21
173.634535
 31
0.0
  0
MTEXT
  5
1E3
100
AcDbEntity
  8
LAYER_1
 62
     7
100
AcDbMText
 10
19.100643
 20
201.167531
 30
0.0
 40
2.667331
 41
0.0
 71
     1
 72
     2
  1
\W0.50;\fMS Gothic|b0|i0|c128;ゴムアスファルト系シール材
  7
KANJISTD
210
0.0
220
0.0
230
1.0
 11
1.000001
 21
0.0
 31
0.0
 73
     1
 44
1.0
  0
MTEXT
  5
1E2
100
AcDbEntity
  8
LAYER_1
 62
     7
100
AcDbMText
 10
66.65054
 20
205.723498
 30
0.0
 40
2.667331
 41
0.0
 71
     1
 72
     2
  1
\W0.50;\fMS Gothic|b0|i0|c128;(120～150)
  7
KANJISTD
210
0.0
220
0.0
230
1.0
 11
1.000001
 21
0.0
 31
0.0
 73
     1
 44
1.0
  0
POLYLINE
  5
1DD
100
AcDbEntity
  8
LAYER_1
 62
     7
100
AcDb2dPolyline
 66
     1
 10
0.0
 20
0.0
 30
0.0
  0
VERTEX
  5
1DE
100
AcDbEntity
  8
LAYER_1
 62
     7
100
AcDbVertex
100
AcDb2dVertex
 10
65.330207
 20
168.829144
 30
0.0
  0
VERTEX
  5
1DF
100
AcDbEntity
  8
LAYER_1
 62
     7
100
AcDbVertex
100
AcDb2dVertex
 10
65.330207
 20
201.986293
 30
0.0
  0
VERTEX
  5
1E0
100
AcDbEntity
  8
LAYER_1
 62
     7
100
AcDbVertex
100
AcDb2dVertex
 10
84.439118
 20
201.986293
 30
0.0
  0
SEQEND
  5
1E1
100
AcDbEntity
  8
LAYER_1
 62
     7
  0
LINE
  5
1DC
100
AcDbEntity
  8
LAYER_1
 62
     7
100
AcDbLine
 10
84.309583
 20
189.029806
 30
0.0
 11
84.309583
 21
201.986293
 31
0.0
  0
POLYLINE
  5
1D7
100
AcDbEntity
  8
LAYER_1
 62
     7
100
AcDb2dPolyline
 66
     1
 10
0.0
 20
0.0
 30
0.0
  0
VERTEX
  5
1D8
100
AcDbEntity
  8
LAYER_1
 62
     7
100
AcDbVertex
100
AcDb2dVertex
 10
82.408234
 20
173.118287
 30
0.0
  0
VERTEX
  5
1D9
100
AcDbEntity
  8
LAYER_1
 62
     7
100
AcDbVertex
100
AcDb2dVertex
 10
84.360914
 20
173.642459
 30
0.0
  0
VERTEX
  5
1DA
100
AcDbEntity
  8
LAYER_1
 62
     7
100
AcDbVertex
100
AcDb2dVertex
 10
82.408234
 20
174.165424
 30
0.0
  0
SEQEND
  5
1DB
100
AcDbEntity
  8
LAYER_1
 62
     7
  0
LINE
  5
1D6
100
AcDbEntity
  8
LAYER_1
 62
     7
100
AcDbLine
 10
75.050888
 20
173.642459
 30
0.0
 11
84.201923
 21
173.642459
 31
0.0
  0
POLYLINE
  5
1D0
100
AcDbEntity
  8
LAYER_1
 62
     7
100
AcDb2dPolyline
 66
     1
 10
0.0
 20
0.0
 30
0.0
  0
VERTEX
  5
1D1
100
AcDbEntity
  8
LAYER_1
 62
     7
100
AcDbVertex
100
AcDb2dVertex
 10
186.62978
 20
87.142312
 30
0.0
  0
VERTEX
  5
1D2
100
AcDbEntity
  8
LAYER_1
 62
     7
100
AcDbVertex
100
AcDb2dVertex
 10
65.368792
 20
87.142312
 30
0.0
  0
VERTEX
  5
1D3
100
AcDbEntity
  8
LAYER_1
 62
     7
100
AcDbVertex
100
AcDb2dVertex
 10
65.365002
 20
167.989746
 30
0.0
  0
VERTEX
  5
1D4
100
AcDbEntity
  8
LAYER_1
 62
     7
100
AcDbVertex
100
AcDb2dVertex
 10
74.694321
 20
167.989746
 30
0.0
  0
SEQEND
  5
1D5
100
AcDbEntity
  8
LAYER_1
 62
     7
  0
POLYLINE
  5
1CB
100
AcDbEntity
  8
LAYER_1
 62
     7
100
AcDb2dPolyline
 66
     1
 10
0.0
 20
0.0
 30
0.0
  0
VERTEX
  5
1CC
100
AcDbEntity
  8
LAYER_1
 62
     7
100
AcDbVertex
100
AcDb2dVertex
 10
67.282543
 20
201.4635
 30
0.0
  0
VERTEX
  5
1CD
100
AcDbEntity
  8
LAYER_1
 62
     7
100
AcDbVertex
100
AcDb2dVertex
 10
65.330207
 20
201.986293
 30
0.0
  0
VERTEX
  5
1CE
100
AcDbEntity
  8
LAYER_1
 62
     7
100
AcDbVertex
100
AcDb2dVertex
 10
67.282543
 20
202.509086
 30
0.0
  0
SEQEND
  5
1CF
100
AcDbEntity
  8
LAYER_1
 62
     7
  0
POLYLINE
  5
1C6
100
AcDbEntity
  8
LAYER_1
 62
     7
100
AcDb2dPolyline
 66
     1
 10
0.0
 20
0.0
 30
0.0
  0
VERTEX
  5
1C7
100
AcDbEntity
  8
LAYER_1
 62
     7
100
AcDbVertex
100
AcDb2dVertex
 10
80.64848
 20
173.118287
 30
0.0
  0
VERTEX
  5
1C8
100
AcDbEntity
  8
LAYER_1
 62
     7
100
AcDbVertex
100
AcDb2dVertex
 10
78.695972
 20
173.642459
 30
0.0
  0
VERTEX
  5
1C9
100
AcDbEntity
  8
LAYER_1
 62
     7
100
AcDbVertex
100
AcDb2dVertex
 10
80.64848
 20
174.165424
 30
0.0
  0
SEQEND
  5
1CA
100
AcDbEntity
  8
LAYER_1
 62
     7
  0
POLYLINE
  5
1C1
100
AcDbEntity
  8
LAYER_1
 62
     7
100
AcDb2dPolyline
 66
     1
 10
0.0
 20
0.0
 30
0.0
  0
VERTEX
  5
1C2
100
AcDbEntity
  8
LAYER_1
 62
     7
100
AcDbVertex
100
AcDb2dVertex
 10
82.379985
 20
201.4635
 30
0.0
  0
VERTEX
  5
1C3
100
AcDbEntity
  8
LAYER_1
 62
     7
100
AcDbVertex
100
AcDb2dVertex
 10
84.331114
 20
201.986293
 30
0.0
  0
VERTEX
  5
1C4
100
AcDbEntity
  8
LAYER_1
 62
     7
100
AcDbVertex
100
AcDb2dVertex
 10
82.379985
 20
202.509086
 30
0.0
  0
SEQEND
  5
1C5
100
AcDbEntity
  8
LAYER_1
 62
     7
  0
LINE
  5
1C0
100
AcDbEntity
  8
LAYER_1
 62
     7
100
AcDbLine
 10
99.870734
 20
169.515062
 30
0.0
 11
99.870734
 21
182.258643
 31
0.0
  0
LINE
  5
1BF
100
AcDbEntity
  8
LAYER_1
 62
     7
100
AcDbLine
 10
161.138485
 20
194.879405
 30
0.0
 11
161.138485
 21
201.630587
 31
0.0
  0
LINE
  5
1BE
100
AcDbEntity
  8
LAYER_1
 62
     7
100
AcDbLine
 10
147.197217
 20
106.480667
 30
0.0
 11
151.788151
 21
106.480667
 31
0.0
  0
POLYLINE
  5
1B9
100
AcDbEntity
  8
LAYER_1
 62
     7
100
AcDb2dPolyline
 66
     1
 10
0.0
 20
0.0
 30
0.0
  0
VERTEX
  5
1BA
100
AcDbEntity
  8
LAYER_1
 62
     7
100
AcDbVertex
100
AcDb2dVertex
 10
149.149897
 20
105.958046
 30
0.0
  0
VERTEX
  5
1BB
100
AcDbEntity
  8
LAYER_1
 62
     7
100
AcDbVertex
100
AcDb2dVertex
 10
147.197217
 20
106.480667
 30
0.0
  0
VERTEX
  5
1BC
100
AcDbEntity
  8
LAYER_1
 62
     7
100
AcDbVertex
100
AcDb2dVertex
 10
149.149897
 20
107.003632
 30
0.0
  0
SEQEND
  5
1BD
100
AcDbEntity
  8
LAYER_1
 62
     7
  0
LINE
  5
1B8
100
AcDbEntity
  8
LAYER_1
 62
     7
100
AcDbLine
 10
143.656003
 20
106.580575
 30
0.0
 11
139.064724
 21
106.580575
 31
0.0
  0
LINE
  5
1B7
100
AcDbEntity
  8
LAYER_1
 62
     7
100
AcDbLine
 10
175.895207
 20
121.574319
 30
0.0
 11
178.272323
 21
121.574319
 31
0.0
  0
LINE
  5
1B6
100
AcDbEntity
  8
LAYER_1
 62
     7
100
AcDbLine
 10
175.895207
 20
116.184123
 30
0.0
 11
178.272323
 21
116.184123
 31
0.0
  0
POLYLINE
  5
1B1
100
AcDbEntity
  8
LAYER_1
 62
     7
100
AcDb2dPolyline
 66
     1
 10
0.0
 20
0.0
 30
0.0
  0
VERTEX
  5
1B2
100
AcDbEntity
  8
LAYER_1
 62
     7
100
AcDbVertex
100
AcDb2dVertex
 10
175.895207
 20
88.080412
 30
0.0
  0
VERTEX
  5
1B3
100
AcDbEntity
  8
LAYER_1
 62
     7
100
AcDbVertex
100
AcDb2dVertex
 10
175.895207
 20
126.954869
 30
0.0
  0
VERTEX
  5
1B4
100
AcDbEntity
  8
LAYER_1
 62
     7
100
AcDbVertex
100
AcDb2dVertex
 10
178.272323
 20
126.954869
 30
0.0
  0
SEQEND
  5
1B5
100
AcDbEntity
  8
LAYER_1
 62
     7
  0
SPLINE
  5
1B0
100
AcDbEntity
  8
LAYER_1
 62
     7
100
AcDbSpline
210
0.0
220
0.0
230
1.0
 70
     8
 71
     3
 72
    17
 73
    13
 74
     0
 42
0.00000001
 43
0.00000001
 40
0.0
 40
0.0
 40
0.0
 40
0.0
 40
1.0
 40
1.0
 40
1.0
 40
2.0
 40
2.0
 40
2.0
 40
3.0
 40
3.0
 40
3.0
 40
4.0
 40
4.0
 40
4.0
 40
4.0
 10
140.79622938368055
 20
93.606344943576374
 30
0.0
 10
140.61088324652778
 20
93.60772298177082
 30
0.0
 10
140.46102159288193
 20
93.757929144965274
 30
0.0
 10
140.45964355468749
 20
93.943275282118051
 30
0.0
 10
140.55093858506945
 20
94.166861979166654
 30
0.0
 10
140.80484212239583
 20
94.275382486979154
 30
0.0
 10
141.02946234809028
 20
94.187188042534714
 30
0.0
 10
141.09526367187499
 20
94.123109266493046
 30
0.0
 10
141.13247070312499
 20
94.035259331597217
 30
0.0
 10
141.13315972222222
 20
93.943275282118051
 30
0.0
 10
141.13178168402777
 20
93.757929144965274
 30
0.0
 10
140.98192003038193
 20
93.60772298177082
 30
0.0
 10
140.79622938368055
 20
93.606344943576374
 30
0.0
  0
SPLINE
  5
1AF
100
AcDbEntity
  8
LAYER_1
 62
     7
100
AcDbSpline
210
0.0
220
0.0
230
1.0
 70
     8
 71
     3
 72
    17
 73
    13
 74
     0
 42
0.00000001
 43
0.00000001
 40
0.0
 40
0.0
 40
0.0
 40
0.0
 40
1.0
 40
1.0
 40
1.0
 40
2.0
 40
2.0
 40
2.0
 40
3.0
 40
3.0
 40
3.0
 40
4.0
 40
4.0
 40
4.0
 40
4.0
 10
145.07469346788193
 20
97.924083116319437
 30
0.0
 10
144.88934733072915
 20
97.925461154513883
 30
0.0
 10
144.73914116753471
 20
98.075322808159711
 30
0.0
 10
144.73776312934027
 20
98.260668945312489
 30
0.0
 10
144.82940266927082
 20
98.484255642361106
 30
0.0
 10
145.0833062065972
 20
98.593120659722217
 30
0.0
 10
145.30792643229165
 20
98.504581705729152
 30
0.0
 10
145.37372775607636
 20
98.440502929687497
 30
0.0
 10
145.41093478732637
 20
98.352652994791654
 30
0.0
 10
145.41162380642359
 20
98.260668945312489
 30
0.0
 10
145.41024576822915
 20
98.075322808159711
 30
0.0
 10
145.26038411458333
 20
97.925461154513883
 30
0.0
 10
145.07469346788193
 20
97.924083116319437
 30
0.0
  0
SPLINE
  5
1AE
100
AcDbEntity
  8
LAYER_1
 62
     7
100
AcDbSpline
210
0.0
220
0.0
230
1.0
 70
     8
 71
     3
 72
    17
 73
    13
 74
     0
 42
0.00000001
 43
0.00000001
 40
0.0
 40
0.0
 40
0.0
 40
0.0
 40
1.0
 40
1.0
 40
1.0
 40
2.0
 40
2.0
 40
2.0
 40
3.0
 40
3.0
 40
3.0
 40
4.0
 40
4.0
 40
4.0
 40
4.0
 10
175.89520670572915
 20
96.014466688368046
 30
0.0
 10
175.70986056857637
 20
96.015844726562491
 30
0.0
 10
175.55965440538193
 20
96.166050889756931
 30
0.0
 10
175.55827636718749
 20
96.351397026909709
 30
0.0
 10
175.64957139756942
 20
96.574294704861103
 30
0.0
 10
175.9027859157986
 20
96.683159722222214
 30
0.0
 10
176.12706163194443
 20
96.595309787326386
 30
0.0
 10
176.19320746527777
 20
96.531231011284717
 30
0.0
 10
176.23110351562499
 20
96.443381076388874
 30
0.0
 10
176.23213704427081
 20
96.351397026909709
 30
0.0
 10
176.23075900607637
 20
96.166050889756931
 30
0.0
 10
176.08089735243053
 20
96.015844726562491
 30
0.0
 10
175.89520670572915
 20
96.014466688368046
 30
0.0
  0
SPLINE
  5
1AD
100
AcDbEntity
  8
LAYER_1
 62
     7
100
AcDbSpline
210
0.0
220
0.0
230
1.0
 70
     8
 71
     3
 72
    20
 73
    16
 74
     0
 42
0.00000001
 43
0.00000001
 40
0.0
 40
0.0
 40
0.0
 40
0.0
 40
1.0
 40
1.0
 40
1.0
 40
2.0
 40
2.0
 40
2.0
 40
3.0
 40
3.0
 40
3.0
 40
4.0
 40
4.0
 40
4.0
 40
5.0
 40
5.0
 40
5.0
 40
5.0
 10
175.89520670572915
 20
87.743481445312497
 30
0.0
 10
175.70986056857637
 20
87.744859483506943
 30
0.0
 10
175.55965440538193
 20
87.894721137152771
 30
0.0
 10
175.55827636718749
 20
88.08041178385416
 30
0.0
 10
175.64957139756942
 20
88.303309461805554
 30
0.0
 10
175.9027859157986
 20
88.412174479166666
 30
0.0
 10
176.12706163194443
 20
88.324324544270823
 30
0.0
 10
176.19320746527777
 20
88.260245768229154
 30
0.0
 10
176.23110351562499
 20
88.172395833333326
 30
0.0
 10
176.23213704427081
 20
88.08041178385416
 30
0.0
 10
176.23213704427081
 20
87.990839301215274
 30
0.0
 10
176.19665256076388
 20
87.905400933159711
 30
0.0
 10
176.13360731336803
 20
87.842011176215266
 30
0.0
 10
176.07021755642359
 20
87.778965928819431
 30
0.0
 10
175.98443467881944
 20
87.743481445312497
 30
0.0
 10
175.89520670572915
 20
87.743481445312497
 30
0.0
  0
POLYLINE
  5
1A8
100
AcDbEntity
  8
LAYER_1
 62
     7
100
AcDb2dPolyline
 66
     1
 10
0.0
 20
0.0
 30
0.0
  0
VERTEX
  5
1A9
100
AcDbEntity
  8
LAYER_1
 62
     7
100
AcDbVertex
100
AcDb2dVertex
 10
67.664087
 20
158.040999
 30
0.0
  0
VERTEX
  5
1AA
100
AcDbEntity
  8
LAYER_1
 62
     7
100
AcDbVertex
100
AcDb2dVertex
 10
60.132419
 20
144.936201
 30
0.0
  0
VERTEX
  5
1AB
100
AcDbEntity
  8
LAYER_1
 62
     7
100
AcDbVertex
100
AcDb2dVertex
 10
57.834196
 20
144.936201
 30
0.0
  0
SEQEND
  5
1AC
100
AcDbEntity
  8
LAYER_1
 62
     7
  0
POLYLINE
  5
1A3
100
AcDbEntity
  8
LAYER_1
 62
     7
100
AcDb2dPolyline
 66
     1
 10
0.0
 20
0.0
 30
0.0
  0
VERTEX
  5
1A4
100
AcDbEntity
  8
LAYER_1
 62
     7
100
AcDbVertex
100
AcDb2dVertex
 10
77.255405
 20
170.00685
 30
0.0
  0
VERTEX
  5
1A5
100
AcDbEntity
  8
LAYER_1
 62
     7
100
AcDbVertex
100
AcDb2dVertex
 10
57.537401
 20
204.863292
 30
0.0
  0
VERTEX
  5
1A6
100
AcDbEntity
  8
LAYER_1
 62
     7
100
AcDbVertex
100
AcDb2dVertex
 10
55.23935
 20
204.863292
 30
0.0
  0
SEQEND
  5
1A7
100
AcDbEntity
  8
LAYER_1
 62
     7
  0
SPLINE
  5
1A2
100
AcDbEntity
  8
LAYER_1
 62
     7
100
AcDbSpline
210
0.0
220
0.0
230
1.0
 70
     8
 71
     3
 72
    17
 73
    13
 74
     0
 42
0.00000001
 43
0.00000001
 40
0.0
 40
0.0
 40
0.0
 40
0.0
 40
1.0
 40
1.0
 40
1.0
 40
2.0
 40
2.0
 40
2.0
 40
3.0
 40
3.0
 40
3.0
 40
4.0
 40
4.0
 40
4.0
 40
4.0
 10
77.294506835937497
 20
169.65252143012151
 30
0.0
 10
77.091935221354163
 20
169.65389946831596
 30
0.0
 10
76.928120930989579
 20
169.81788601345485
 30
0.0
 10
76.92657063802082
 20
170.02045762803817
 30
0.0
 10
77.020793999565967
 20
170.26350911458331
 30
0.0
 10
77.292612033420127
 20
170.38598225911457
 30
0.0
 10
77.537041558159714
 20
170.29537624782984
 30
0.0
 10
77.615072970920139
 20
170.22509629991319
 30
0.0
 10
77.66003146701388
 20
170.12536078559026
 30
0.0
 10
77.661064995659714
 20
170.02045762803817
 30
0.0
 10
77.659859212239581
 20
169.81823052300345
 30
0.0
 10
77.496561686197907
 20
169.65441623263888
 30
0.0
 10
77.294506835937497
 20
169.65252143012151
 30
0.0
  0
POLYLINE
  5
19D
100
AcDbEntity
  8
LAYER_1
 62
     7
100
AcDb2dPolyline
 66
     1
 10
0.0
 20
0.0
 30
0.0
  0
VERTEX
  5
19E
100
AcDbEntity
  8
LAYER_1
 62
     7
100
AcDbVertex
100
AcDb2dVertex
 10
67.777431
 20
165.134279
 30
0.0
  0
VERTEX
  5
19F
100
AcDbEntity
  8
LAYER_1
 62
     7
100
AcDbVertex
100
AcDb2dVertex
 10
48.059599
 20
199.990549
 30
0.0
  0
VERTEX
  5
1A0
100
AcDbEntity
  8
LAYER_1
 62
     7
100
AcDbVertex
100
AcDb2dVertex
 10
45.761548
 20
199.990549
 30
0.0
  0
SEQEND
  5
1A1
100
AcDbEntity
  8
LAYER_1
 62
     7
  0
SPLINE
  5
19C
100
AcDbEntity
  8
LAYER_1
 62
     7
100
AcDbSpline
210
0.0
220
0.0
230
1.0
 70
     8
 71
     3
 72
    17
 73
    13
 74
     0
 42
0.00000001
 43
0.00000001
 40
0.0
 40
0.0
 40
0.0
 40
0.0
 40
1.0
 40
1.0
 40
1.0
 40
2.0
 40
2.0
 40
2.0
 40
3.0
 40
3.0
 40
3.0
 40
4.0
 40
4.0
 40
4.0
 40
4.0
 10
67.826178656684021
 20
164.75152859157984
 30
0.0
 10
67.624123806423611
 20
164.75290662977429
 30
0.0
 10
67.460654025607639
 20
164.91620415581596
 30
0.0
 10
67.45910373263888
 20
165.11808675130206
 30
0.0
 10
67.553327094184027
 20
165.3613104926215
 30
0.0
 10
67.8253173828125
 20
165.48378363715275
 30
0.0
 10
68.069919162326386
 20
165.39300537109372
 30
0.0
 10
68.147606065538184
 20
165.32272542317708
 30
0.0
 10
68.19256456163194
 20
165.22298990885415
 30
0.0
 10
68.193425835503461
 20
165.11808675130206
 30
0.0
 10
68.191875542534717
 20
164.91620415581596
 30
0.0
 10
68.028233506944431
 20
164.75290662977429
 30
0.0
 10
67.826178656684021
 20
164.75152859157984
 30
0.0
  0
POLYLINE
  5
197
100
AcDbEntity
  8
LAYER_1
 62
     7
100
AcDb2dPolyline
 66
     1
 10
0.0
 20
0.0
 30
0.0
  0
VERTEX
  5
198
100
AcDbEntity
  8
LAYER_1
 62
     7
100
AcDbVertex
100
AcDb2dVertex
 10
58.792622
 20
193.470017
 30
0.0
  0
VERTEX
  5
199
100
AcDbEntity
  8
LAYER_1
 62
     7
100
AcDbVertex
100
AcDb2dVertex
 10
67.677351
 20
208.750738
 30
0.0
  0
VERTEX
  5
19A
100
AcDbEntity
  8
LAYER_1
 62
     7
100
AcDbVertex
100
AcDb2dVertex
 10
69.975229
 20
208.750738
 30
0.0
  0
SEQEND
  5
19B
100
AcDbEntity
  8
LAYER_1
 62
     7
  0
SPLINE
  5
196
100
AcDbEntity
  8
LAYER_1
 62
     7
100
AcDbSpline
210
0.0
220
0.0
230
1.0
 70
     8
 71
     3
 72
    17
 73
    13
 74
     0
 42
0.00000001
 43
0.00000001
 40
0.0
 40
0.0
 40
0.0
 40
0.0
 40
1.0
 40
1.0
 40
1.0
 40
2.0
 40
2.0
 40
2.0
 40
3.0
 40
3.0
 40
3.0
 40
4.0
 40
4.0
 40
4.0
 40
4.0
 10
58.987441677517353
 20
193.17890624999998
 30
0.0
 10
59.065300835503464
 20
193.24918619791666
 30
0.0
 10
59.110087076822914
 20
193.34892171223956
 30
0.0
 10
59.110948350694436
 20
193.45382486979165
 30
0.0
 10
59.109398057725691
 20
193.65570746527777
 30
0.0
 10
58.945756022135413
 20
193.81900499131942
 30
0.0
 10
58.743873426649301
 20
193.82038302951386
 30
0.0
 10
58.541818576388884
 20
193.81900499131942
 30
0.0
 10
58.378176540798606
 20
193.65570746527777
 30
0.0
 10
58.376626247829854
 20
193.45382486979165
 30
0.0
 10
58.470849609374994
 20
193.21060112847221
 30
0.0
 10
58.742839898003467
 20
193.08812798394095
 30
0.0
 10
58.987441677517353
 20
193.17890624999998
 30
0.0
  0
POLYLINE
  5
191
100
AcDbEntity
  8
LAYER_1
 62
     7
100
AcDb2dPolyline
 66
     1
 10
0.0
 20
0.0
 30
0.0
  0
VERTEX
  5
192
100
AcDbEntity
  8
LAYER_1
 62
     7
100
AcDbVertex
100
AcDb2dVertex
 10
76.708324
 20
128.516876
 30
0.0
  0
VERTEX
  5
193
100
AcDbEntity
  8
LAYER_1
 62
     7
100
AcDbVertex
100
AcDb2dVertex
 10
84.294769
 20
142.079527
 30
0.0
  0
VERTEX
  5
194
100
AcDbEntity
  8
LAYER_1
 62
     7
100
AcDbVertex
100
AcDb2dVertex
 10
86.592303
 20
142.079527
 30
0.0
  0
SEQEND
  5
195
100
AcDbEntity
  8
LAYER_1
 62
     7
  0
SPLINE
  5
190
100
AcDbEntity
  8
LAYER_1
 62
     7
100
AcDbSpline
210
0.0
220
0.0
230
1.0
 70
     8
 71
     3
 72
    17
 73
    13
 74
     0
 42
0.00000001
 43
0.00000001
 40
0.0
 40
0.0
 40
0.0
 40
0.0
 40
1.0
 40
1.0
 40
1.0
 40
2.0
 40
2.0
 40
2.0
 40
3.0
 40
3.0
 40
3.0
 40
4.0
 40
4.0
 40
4.0
 40
4.0
 10
76.903660753038181
 20
128.22576497395832
 30
0.0
 10
76.981175401475681
 20
128.29604492187499
 30
0.0
 10
77.025789388020826
 20
128.39595269097222
 30
0.0
 10
77.02630615234375
 20
128.50068359374998
 30
0.0
 10
77.025272623697916
 20
128.70291069878471
 30
0.0
 10
76.861975097656241
 20
128.86655273437498
 30
0.0
 10
76.659747992621519
 20
128.86861979166665
 30
0.0
 10
76.457176378038184
 20
128.8668972439236
 30
0.0
 10
76.2933620876736
 20
128.70325520833333
 30
0.0
 10
76.291811794704856
 20
128.50068359374998
 30
0.0
 10
76.3863796657986
 20
128.25711534288195
 30
0.0
 10
76.658886718749997
 20
128.13481445312499
 30
0.0
 10
76.903660753038181
 20
128.22576497395832
 30
0.0
  0
POLYLINE
  5
18B
100
AcDbEntity
  8
LAYER_1
 62
     7
100
AcDb2dPolyline
 66
     1
 10
0.0
 20
0.0
 30
0.0
  0
VERTEX
  5
18C
100
AcDbEntity
  8
LAYER_1
 62
     7
100
AcDbVertex
100
AcDb2dVertex
 10
68.2625
 20
99.424422
 30
0.0
  0
VERTEX
  5
18D
100
AcDbEntity
  8
LAYER_1
 62
     7
100
AcDbVertex
100
AcDb2dVertex
 10
87.811867
 20
133.137438
 30
0.0
  0
VERTEX
  5
18E
100
AcDbEntity
  8
LAYER_1
 62
     7
100
AcDbVertex
100
AcDb2dVertex
 10
90.109401
 20
133.137438
 30
0.0
  0
SEQEND
  5
18F
100
AcDbEntity
  8
LAYER_1
 62
     7
  0
POLYLINE
  5
186
100
AcDbEntity
  8
LAYER_1
 62
     7
100
AcDb2dPolyline
 66
     1
 10
0.0
 20
0.0
 30
0.0
  0
VERTEX
  5
187
100
AcDbEntity
  8
LAYER_1
 62
     7
100
AcDbVertex
100
AcDb2dVertex
 10
76.663882
 20
96.724845
 30
0.0
  0
VERTEX
  5
188
100
AcDbEntity
  8
LAYER_1
 62
     7
100
AcDbVertex
100
AcDb2dVertex
 10
87.993768
 20
116.348454
 30
0.0
  0
VERTEX
  5
189
100
AcDbEntity
  8
LAYER_1
 62
     7
100
AcDbVertex
100
AcDb2dVertex
 10
90.291302
 20
116.348454
 30
0.0
  0
SEQEND
  5
18A
100
AcDbEntity
  8
LAYER_1
 62
     7
  0
POLYLINE
  5
181
100
AcDbEntity
  8
LAYER_1
 62
     7
100
AcDb2dPolyline
 66
     1
 10
0.0
 20
0.0
 30
0.0
  0
VERTEX
  5
182
100
AcDbEntity
  8
LAYER_1
 62
     7
100
AcDbVertex
100
AcDb2dVertex
 10
78.23898
 20
103.101028
 30
0.0
  0
VERTEX
  5
183
100
AcDbEntity
  8
LAYER_1
 62
     7
100
AcDbVertex
100
AcDb2dVertex
 10
89.56766
 20
122.724981
 30
0.0
  0
VERTEX
  5
184
100
AcDbEntity
  8
LAYER_1
 62
     7
100
AcDbVertex
100
AcDb2dVertex
 10
91.866572
 20
122.724981
 30
0.0
  0
SEQEND
  5
185
100
AcDbEntity
  8
LAYER_1
 62
     7
  0
LINE
  5
180
100
AcDbEntity
  8
LAYER_1
 62
     7
100
AcDbLine
 10
75.684786
 20
81.11374
 30
0.0
 11
81.689243
 21
81.11374
 31
0.0
  0
POLYLINE
  5
17B
100
AcDbEntity
  8
LAYER_1
 62
     7
100
AcDb2dPolyline
 66
     1
 10
0.0
 20
0.0
 30
0.0
  0
VERTEX
  5
17C
100
AcDbEntity
  8
LAYER_1
 62
     7
100
AcDbVertex
100
AcDb2dVertex
 10
119.911027
 20
98.031915
 30
0.0
  0
VERTEX
  5
17D
100
AcDbEntity
  8
LAYER_1
 62
     7
100
AcDbVertex
100
AcDb2dVertex
 10
120.433993
 20
99.98425
 30
0.0
  0
VERTEX
  5
17E
100
AcDbEntity
  8
LAYER_1
 62
     7
100
AcDbVertex
100
AcDb2dVertex
 10
120.958336
 20
98.031915
 30
0.0
  0
SEQEND
  5
17F
100
AcDbEntity
  8
LAYER_1
 62
     7
  0
POLYLINE
  5
176
100
AcDbEntity
  8
LAYER_1
 62
     7
100
AcDb2dPolyline
 66
     1
 10
0.0
 20
0.0
 30
0.0
  0
VERTEX
  5
177
100
AcDbEntity
  8
LAYER_1
 62
     7
100
AcDbVertex
100
AcDb2dVertex
 10
119.915161
 20
91.1338
 30
0.0
  0
VERTEX
  5
178
100
AcDbEntity
  8
LAYER_1
 62
     7
100
AcDbVertex
100
AcDb2dVertex
 10
120.438127
 20
89.18112
 30
0.0
  0
VERTEX
  5
179
100
AcDbEntity
  8
LAYER_1
 62
     7
100
AcDbVertex
100
AcDb2dVertex
 10
120.960748
 20
91.1338
 30
0.0
  0
SEQEND
  5
17A
100
AcDbEntity
  8
LAYER_1
 62
     7
  0
POLYLINE
  5
171
100
AcDbEntity
  8
LAYER_1
 62
     7
100
AcDb2dPolyline
 66
     1
 10
0.0
 20
0.0
 30
0.0
  0
VERTEX
  5
172
100
AcDbEntity
  8
LAYER_1
 62
     7
100
AcDbVertex
100
AcDb2dVertex
 10
85.494179
 20
93.091648
 30
0.0
  0
VERTEX
  5
173
100
AcDbEntity
  8
LAYER_1
 62
     7
100
AcDbVertex
100
AcDb2dVertex
 10
86.016972
 20
95.044328
 30
0.0
  0
VERTEX
  5
174
100
AcDbEntity
  8
LAYER_1
 62
     7
100
AcDbVertex
100
AcDb2dVertex
 10
86.539765
 20
93.091648
 30
0.0
  0
SEQEND
  5
175
100
AcDbEntity
  8
LAYER_1
 62
     7
  0
POLYLINE
  5
16C
100
AcDbEntity
  8
LAYER_1
 62
     7
100
AcDb2dPolyline
 66
     1
 10
0.0
 20
0.0
 30
0.0
  0
VERTEX
  5
16D
100
AcDbEntity
  8
LAYER_1
 62
     7
100
AcDbVertex
100
AcDb2dVertex
 10
85.525184
 20
102.096094
 30
0.0
  0
VERTEX
  5
16E
100
AcDbEntity
  8
LAYER_1
 62
     7
100
AcDbVertex
100
AcDb2dVertex
 10
86.049356
 20
100.143414
 30
0.0
  0
VERTEX
  5
16F
100
AcDbEntity
  8
LAYER_1
 62
     7
100
AcDbVertex
100
AcDb2dVertex
 10
86.572149
 20
102.096094
 30
0.0
  0
SEQEND
  5
170
100
AcDbEntity
  8
LAYER_1
 62
     7
  0
POLYLINE
  5
167
100
AcDbEntity
  8
LAYER_1
 62
     7
100
AcDb2dPolyline
 66
     1
 10
0.0
 20
0.0
 30
0.0
  0
VERTEX
  5
168
100
AcDbEntity
  8
LAYER_1
 62
     7
100
AcDbVertex
100
AcDb2dVertex
 10
69.232639
 20
72.298085
 30
0.0
  0
VERTEX
  5
169
100
AcDbEntity
  8
LAYER_1
 62
     7
100
AcDbVertex
100
AcDb2dVertex
 10
67.280303
 20
72.82105
 30
0.0
  0
VERTEX
  5
16A
100
AcDbEntity
  8
LAYER_1
 62
     7
100
AcDbVertex
100
AcDb2dVertex
 10
69.232639
 20
73.344016
 30
0.0
  0
SEQEND
  5
16B
100
AcDbEntity
  8
LAYER_1
 62
     7
  0
POLYLINE
  5
162
100
AcDbEntity
  8
LAYER_1
 62
     7
100
AcDb2dPolyline
 66
     1
 10
0.0
 20
0.0
 30
0.0
  0
VERTEX
  5
163
100
AcDbEntity
  8
LAYER_1
 62
     7
100
AcDbVertex
100
AcDb2dVertex
 10
43.0382
 20
151.35717
 30
0.0
  0
VERTEX
  5
164
100
AcDbEntity
  8
LAYER_1
 62
     7
100
AcDbVertex
100
AcDb2dVertex
 10
41.085864
 20
151.880135
 30
0.0
  0
VERTEX
  5
165
100
AcDbEntity
  8
LAYER_1
 62
     7
100
AcDbVertex
100
AcDb2dVertex
 10
43.0382
 20
152.402928
 30
0.0
  0
SEQEND
  5
166
100
AcDbEntity
  8
LAYER_1
 62
     7
  0
POLYLINE
  5
15D
100
AcDbEntity
  8
LAYER_1
 62
     7
100
AcDb2dPolyline
 66
     1
 10
0.0
 20
0.0
 30
0.0
  0
VERTEX
  5
15E
100
AcDbEntity
  8
LAYER_1
 62
     7
100
AcDbVertex
100
AcDb2dVertex
 10
36.162478
 20
151.475853
 30
0.0
  0
VERTEX
  5
15F
100
AcDbEntity
  8
LAYER_1
 62
     7
100
AcDbVertex
100
AcDb2dVertex
 10
38.114814
 20
151.998646
 30
0.0
  0
VERTEX
  5
160
100
AcDbEntity
  8
LAYER_1
 62
     7
100
AcDbVertex
100
AcDb2dVertex
 10
36.162478
 20
152.52144
 30
0.0
  0
SEQEND
  5
161
100
AcDbEntity
  8
LAYER_1
 62
     7
  0
POLYLINE
  5
158
100
AcDbEntity
  8
LAYER_1
 62
     7
100
AcDb2dPolyline
 66
     1
 10
0.0
 20
0.0
 30
0.0
  0
VERTEX
  5
159
100
AcDbEntity
  8
LAYER_1
 62
     7
100
AcDbVertex
100
AcDb2dVertex
 10
63.230594
 20
151.413841
 30
0.0
  0
VERTEX
  5
15A
100
AcDbEntity
  8
LAYER_1
 62
     7
100
AcDbVertex
100
AcDb2dVertex
 10
65.183101
 20
151.938013
 30
0.0
  0
VERTEX
  5
15B
100
AcDbEntity
  8
LAYER_1
 62
     7
100
AcDbVertex
100
AcDb2dVertex
 10
63.230594
 20
152.460806
 30
0.0
  0
SEQEND
  5
15C
100
AcDbEntity
  8
LAYER_1
 62
     7
  0
POLYLINE
  5
153
100
AcDbEntity
  8
LAYER_1
 62
     7
100
AcDb2dPolyline
 66
     1
 10
0.0
 20
0.0
 30
0.0
  0
VERTEX
  5
154
100
AcDbEntity
  8
LAYER_1
 62
     7
100
AcDbVertex
100
AcDb2dVertex
 10
78.044332
 20
80.631082
 30
0.0
  0
VERTEX
  5
155
100
AcDbEntity
  8
LAYER_1
 62
     7
100
AcDbVertex
100
AcDb2dVertex
 10
76.091652
 20
81.154047
 30
0.0
  0
VERTEX
  5
156
100
AcDbEntity
  8
LAYER_1
 62
     7
100
AcDbVertex
100
AcDb2dVertex
 10
78.044332
 20
81.677013
 30
0.0
  0
SEQEND
  5
157
100
AcDbEntity
  8
LAYER_1
 62
     7
  0
LINE
  5
152
100
AcDbEntity
  8
LAYER_1
 62
     7
100
AcDbLine
 10
67.165065
 20
81.11374
 30
0.0
 11
63.119317
 21
81.11374
 31
0.0
  0
LINE
  5
151
100
AcDbEntity
  8
LAYER_1
 62
     7
100
AcDbLine
 10
86.008876
 20
95.084635
 30
0.0
 11
86.008876
 21
90.397928
 31
0.0
  0
POLYLINE
  5
14C
100
AcDbEntity
  8
LAYER_1
 62
     7
100
AcDb2dPolyline
 66
     1
 10
0.0
 20
0.0
 30
0.0
  0
VERTEX
  5
14D
100
AcDbEntity
  8
LAYER_1
 62
     7
100
AcDbVertex
100
AcDb2dVertex
 10
161.641124
 20
189.071663
 30
0.0
  0
VERTEX
  5
14E
100
AcDbEntity
  8
LAYER_1
 62
     7
100
AcDbVertex
100
AcDb2dVertex
 10
161.118503
 20
191.024171
 30
0.0
  0
VERTEX
  5
14F
100
AcDbEntity
  8
LAYER_1
 62
     7
100
AcDbVertex
100
AcDb2dVertex
 10
160.595538
 20
189.071663
 30
0.0
  0
SEQEND
  5
150
100
AcDbEntity
  8
LAYER_1
 62
     7
  0
POLYLINE
  5
147
100
AcDbEntity
  8
LAYER_1
 62
     7
100
AcDb2dPolyline
 66
     1
 10
0.0
 20
0.0
 30
0.0
  0
VERTEX
  5
148
100
AcDbEntity
  8
LAYER_1
 62
     7
100
AcDbVertex
100
AcDb2dVertex
 10
100.400418
 20
165.965752
 30
0.0
  0
VERTEX
  5
149
100
AcDbEntity
  8
LAYER_1
 62
     7
100
AcDbVertex
100
AcDb2dVertex
 10
99.876246
 20
167.91826
 30
0.0
  0
VERTEX
  5
14A
100
AcDbEntity
  8
LAYER_1
 62
     7
100
AcDbVertex
100
AcDb2dVertex
 10
99.353453
 20
165.965752
 30
0.0
  0
SEQEND
  5
14B
100
AcDbEntity
  8
LAYER_1
 62
     7
  0
POLYLINE
  5
142
100
AcDbEntity
  8
LAYER_1
 62
     7
100
AcDb2dPolyline
 66
     1
 10
0.0
 20
0.0
 30
0.0
  0
VERTEX
  5
143
100
AcDbEntity
  8
LAYER_1
 62
     7
100
AcDbVertex
100
AcDb2dVertex
 10
99.321069
 20
171.466192
 30
0.0
  0
VERTEX
  5
144
100
AcDbEntity
  8
LAYER_1
 62
     7
100
AcDbVertex
100
AcDb2dVertex
 10
99.843863
 20
169.515062
 30
0.0
  0
VERTEX
  5
145
100
AcDbEntity
  8
LAYER_1
 62
     7
100
AcDbVertex
100
AcDb2dVertex
 10
100.366828
 20
171.466192
 30
0.0
  0
SEQEND
  5
146
100
AcDbEntity
  8
LAYER_1
 62
     7
  0
POLYLINE
  5
13D
100
AcDbEntity
  8
LAYER_1
 62
     7
100
AcDb2dPolyline
 66
     1
 10
0.0
 20
0.0
 30
0.0
  0
VERTEX
  5
13E
100
AcDbEntity
  8
LAYER_1
 62
     7
100
AcDbVertex
100
AcDb2dVertex
 10
161.641124
 20
166.054636
 30
0.0
  0
VERTEX
  5
13F
100
AcDbEntity
  8
LAYER_1
 62
     7
100
AcDbVertex
100
AcDb2dVertex
 10
161.118503
 20
168.007144
 30
0.0
  0
VERTEX
  5
140
100
AcDbEntity
  8
LAYER_1
 62
     7
100
AcDbVertex
100
AcDb2dVertex
 10
160.595538
 20
166.054636
 30
0.0
  0
SEQEND
  5
141
100
AcDbEntity
  8
LAYER_1
 62
     7
  0
POLYLINE
  5
138
100
AcDbEntity
  8
LAYER_1
 62
     7
100
AcDb2dPolyline
 66
     1
 10
0.0
 20
0.0
 30
0.0
  0
VERTEX
  5
139
100
AcDbEntity
  8
LAYER_1
 62
     7
100
AcDbVertex
100
AcDb2dVertex
 10
143.499596
 20
72.298085
 30
0.0
  0
VERTEX
  5
13A
100
AcDbEntity
  8
LAYER_1
 62
     7
100
AcDbVertex
100
AcDb2dVertex
 10
145.452276
 20
72.82105
 30
0.0
  0
VERTEX
  5
13B
100
AcDbEntity
  8
LAYER_1
 62
     7
100
AcDbVertex
100
AcDb2dVertex
 10
143.499596
 20
73.344016
 30
0.0
  0
SEQEND
  5
13C
100
AcDbEntity
  8
LAYER_1
 62
     7
  0
POLYLINE
  5
133
100
AcDbEntity
  8
LAYER_1
 62
     7
100
AcDb2dPolyline
 66
     1
 10
0.0
 20
0.0
 30
0.0
  0
VERTEX
  5
134
100
AcDbEntity
  8
LAYER_1
 62
     7
100
AcDbVertex
100
AcDb2dVertex
 10
65.212557
 20
80.590774
 30
0.0
  0
VERTEX
  5
135
100
AcDbEntity
  8
LAYER_1
 62
     7
100
AcDbVertex
100
AcDb2dVertex
 10
67.165065
 20
81.11374
 30
0.0
  0
VERTEX
  5
136
100
AcDbEntity
  8
LAYER_1
 62
     7
100
AcDbVertex
100
AcDb2dVertex
 10
65.212557
 20
81.636361
 30
0.0
  0
SEQEND
  5
137
100
AcDbEntity
  8
LAYER_1
 62
     7
  0
POLYLINE
  5
12E
100
AcDbEntity
  8
LAYER_1
 62
     7
100
AcDb2dPolyline
 66
     1
 10
0.0
 20
0.0
 30
0.0
  0
VERTEX
  5
12F
100
AcDbEntity
  8
LAYER_1
 62
     7
100
AcDbVertex
100
AcDb2dVertex
 10
160.52009
 20
102.234587
 30
0.0
  0
VERTEX
  5
130
100
AcDbEntity
  8
LAYER_1
 62
     7
100
AcDbVertex
100
AcDb2dVertex
 10
161.044089
 20
100.282251
 30
0.0
  0
VERTEX
  5
131
100
AcDbEntity
  8
LAYER_1
 62
     7
100
AcDbVertex
100
AcDb2dVertex
 10
161.567055
 20
102.234587
 30
0.0
  0
SEQEND
  5
132
100
AcDbEntity
  8
LAYER_1
 62
     7
  0
POLYLINE
  5
129
100
AcDbEntity
  8
LAYER_1
 62
     7
100
AcDb2dPolyline
 66
     1
 10
0.0
 20
0.0
 30
0.0
  0
VERTEX
  5
12A
100
AcDbEntity
  8
LAYER_1
 62
     7
100
AcDbVertex
100
AcDb2dVertex
 10
160.595538
 20
196.876527
 30
0.0
  0
VERTEX
  5
12B
100
AcDbEntity
  8
LAYER_1
 62
     7
100
AcDbVertex
100
AcDb2dVertex
 10
161.118503
 20
194.924019
 30
0.0
  0
VERTEX
  5
12C
100
AcDbEntity
  8
LAYER_1
 62
     7
100
AcDbVertex
100
AcDb2dVertex
 10
161.641124
 20
196.876527
 30
0.0
  0
SEQEND
  5
12D
100
AcDbEntity
  8
LAYER_1
 62
     7
  0
POLYLINE
  5
124
100
AcDbEntity
  8
LAYER_1
 62
     7
100
AcDb2dPolyline
 66
     1
 10
0.0
 20
0.0
 30
0.0
  0
VERTEX
  5
125
100
AcDbEntity
  8
LAYER_1
 62
     7
100
AcDbVertex
100
AcDb2dVertex
 10
160.595538
 20
169.959824
 30
0.0
  0
VERTEX
  5
126
100
AcDbEntity
  8
LAYER_1
 62
     7
100
AcDbVertex
100
AcDb2dVertex
 10
161.118503
 20
168.007144
 30
0.0
  0
VERTEX
  5
127
100
AcDbEntity
  8
LAYER_1
 62
     7
100
AcDbVertex
100
AcDb2dVertex
 10
161.641124
 20
169.959824
 30
0.0
  0
SEQEND
  5
128
100
AcDbEntity
  8
LAYER_1
 62
     7
  0
POLYLINE
  5
11F
100
AcDbEntity
  8
LAYER_1
 62
     7
100
AcDb2dPolyline
 66
     1
 10
0.0
 20
0.0
 30
0.0
  0
VERTEX
  5
120
100
AcDbEntity
  8
LAYER_1
 62
     7
100
AcDbVertex
100
AcDb2dVertex
 10
141.703323
 20
106.056231
 30
0.0
  0
VERTEX
  5
121
100
AcDbEntity
  8
LAYER_1
 62
     7
100
AcDbVertex
100
AcDb2dVertex
 10
143.656003
 20
106.580575
 30
0.0
  0
VERTEX
  5
122
100
AcDbEntity
  8
LAYER_1
 62
     7
100
AcDbVertex
100
AcDb2dVertex
 10
141.703323
 20
107.103196
 30
0.0
  0
SEQEND
  5
123
100
AcDbEntity
  8
LAYER_1
 62
     7
  0
MTEXT
  5
11E
100
AcDbEntity
  8
LAYER_1
 62
     7
100
AcDbMText
 10
157.724602
 20
119.457308
 30
0.0
 40
2.667331
 41
0.0
 71
     1
 72
     2
  1
\W0.50;\fMS Gothic|b0|i0|c128;乾式保護工法  600以下
  7
KANJISTD
210
0.0
220
0.0
230
1.0
 11
0.0
 21
1.0
 31
0.0
 73
     1
 44
1.0
  0
MTEXT
  5
11D
100
AcDbEntity
  8
LAYER_1
 62
     7
100
AcDbMText
 10
29.027169
 20
155.083695
 30
0.0
 40
2.667331
 41
0.0
 71
     1
 72
     2
  1
\W0.50;\fMS Gothic|b0|i0|c128;(20)
  7
STD
210
0.0
220
0.0
230
1.0
 11
1.000001
 21
0.0
 31
0.0
 73
     1
 44
1.0
  0
MTEXT
  5
11C
100
AcDbEntity
  8
LAYER_1
 62
     7
100
AcDbMText
 10
48.438387
 20
154.965184
 30
0.0
 40
2.667331
 41
0.0
 71
     1
 72
     2
  1
\W0.50;\fMS Gothic|b0|i0|c128;(180)
  7
STD
210
0.0
220
0.0
230
1.0
 11
1.000001
 21
0.0
 31
0.0
 73
     1
 44
1.0
  0
LINE
  5
11B
100
AcDbEntity
  8
LAYER_1
 62
     7
100
AcDbLine
 10
65.240462
 20
151.901667
 30
0.0
 11
27.260352
 21
151.901667
 31
0.0
  0
MTEXT
  5
11A
100
AcDbEntity
  8
LAYER_1
 62
     7
100
AcDbMText
 10
158.037417
 20
191.020209
 30
0.0
 40
2.667331
 41
0.0
 71
     1
 72
     2
  1
\W0.50;\fMS Gothic|b0|i0|c128;(30)
  7
STD
210
0.0
220
0.0
230
1.0
 11
0.0
 21
1.0
 31
0.0
 73
     1
 44
1.0
  0
MTEXT
  5
119
100
AcDbEntity
  8
LAYER_1
 62
     7
100
AcDbMText
 10
158.16144
 20
176.016819
 30
0.0
 40
2.667331
 41
0.0
 71
     1
 72
     2
  1
\W0.50;\fMS Gothic|b0|i0|c128;(170)
  7
STD
210
0.0
220
0.0
230
1.0
 11
0.0
 21
1.0
 31
0.0
 73
     1
 44
1.0
  0
MTEXT
  5
118
100
AcDbEntity
  8
LAYER_1
 62
     7
100
AcDbMText
 10
126.896992
 20
115.261664
 30
0.0
 40
2.667331
 41
0.0
 71
     1
 72
     2
  1
\W0.50;\fMS Gothic|b0|i0|c128;伸縮目地
  7
KANJISTD
210
0.0
220
0.0
230
1.0
 11
1.000001
 21
0.0
 31
0.0
 73
     1
 44
1.0
  0
MTEXT
  5
117
100
AcDbEntity
  8
LAYER_1
 62
     7
100
AcDbMText
 10
178.81148
 20
122.787819
 30
0.0
 40
2.667331
 41
0.0
 71
     1
 72
     2
  1
\W0.50;\fMS Gothic|b0|i0|c128;ポリエチレンフィルム(t=0.15)
  7
KANJISTD
210
0.0
220
0.0
230
1.0
 11
1.000001
 21
0.0
 31
0.0
 73
     1
 44
1.0
  0
MTEXT
  5
116
100
AcDbEntity
  8
LAYER_1
 62
     7
100
AcDbMText
 10
178.770828
 20
117.320797
 30
0.0
 40
2.667331
 41
0.0
 71
     1
 72
     2
  1
\W0.50;\fMS Gothic|b0|i0|c128;防水層
  7
KANJISTD
210
0.0
220
0.0
230
1.0
 11
1.000001
 21
0.0
 31
0.0
 73
     1
 44
1.0
  0
MTEXT
  5
115
100
AcDbEntity
  8
LAYER_1
 62
     7
100
AcDbMText
 10
178.692624
 20
128.334079
 30
0.0
 40
2.667331
 41
0.0
 71
     1
 72
     2
  1
\W0.50;\fMS Gothic|b0|i0|c128;押さえコンクリート
  7
KANJISTD
210
0.0
220
0.0
230
1.0
 11
1.000001
 21
0.0
 31
0.0
 73
     1
 44
1.0
  0
MTEXT
  5
114
100
AcDbEntity
  8
LAYER_1
 62
     7
100
AcDbMText
 10
124.401364
 20
107.101266
 30
0.0
 40
2.667331
 41
0.0
 71
     1
 72
     2
  1
\W0.50;\fMS Gothic|b0|i0|c128;溶接金網
  7
KANJISTD
210
0.0
220
0.0
230
1.0
 11
1.000001
 21
0.0
 31
0.0
 73
     1
 44
1.0
  0
POLYLINE
  5
10F
100
AcDbEntity
  8
LAYER_1
 62
     7
100
AcDb2dPolyline
 66
     1
 10
0.0
 20
0.0
 30
0.0
  0
VERTEX
  5
110
100
AcDbEntity
  8
LAYER_1
 62
     7
100
AcDbVertex
100
AcDb2dVertex
 10
79.194477
 20
95.173519
 30
0.0
  0
VERTEX
  5
111
100
AcDbEntity
  8
LAYER_1
 62
     7
100
AcDbVertex
100
AcDb2dVertex
 10
86.008876
 20
95.173519
 30
0.0
  0
VERTEX
  5
112
100
AcDbEntity
  8
LAYER_1
 62
     7
100
AcDbVertex
100
AcDb2dVertex
 10
86.008876
 20
107.115253
 30
0.0
  0
SEQEND
  5
113
100
AcDbEntity
  8
LAYER_1
 62
     7
  0
MTEXT
  5
10E
100
AcDbEntity
  8
LAYER_1
 62
     7
100
AcDbMText
 10
90.400511
 20
134.752292
 30
0.0
 40
2.667331
 41
0.0
 71
     1
 72
     2
  1
\W0.50;\fMS Gothic|b0|i0|c128;成形緩衝材
  7
KANJISTD
210
0.0
220
0.0
230
1.0
 11
1.000001
 21
0.0
 31
0.0
 73
     1
 44
1.0
  0
MTEXT
  5
10D
100
AcDbEntity
  8
LAYER_1
 62
     7
100
AcDbMText
 10
90.083907
 20
117.520268
 30
0.0
 40
2.667331
 41
0.0
 71
     1
 72
     2
  1
\W0.50;\fMS Gothic|b0|i0|c128;アンカー
  7
KANJISTD
210
0.0
220
0.0
230
1.0
 11
1.000001
 21
0.0
 31
0.0
 73
     1
 44
1.0
  0
MTEXT
  5
10C
100
AcDbEntity
  8
LAYER_1
 62
     7
100
AcDbMText
 10
96.756058
 20
171.772116
 30
0.0
 40
2.667331
 41
0.0
 71
     1
 72
     2
  1
\W0.50;\fMS Gothic|b0|i0|c128;10程度
  7
KANJISTD
210
0.0
220
0.0
230
1.0
 11
0.0
 21
1.0
 31
0.0
 73
     1
 44
1.0
  0
MTEXT
  5
10B
100
AcDbEntity
  8
LAYER_1
 62
     7
100
AcDbMText
 10
87.207459
 20
95.103583
 30
0.0
 40
2.667331
 41
0.0
 71
     1
 72
     2
  1
\W0.50;\fMS Gothic|b0|i0|c128;50以下
  7
KANJISTD
210
0.0
220
0.0
230
1.0
 11
0.0
 21
1.0
 31
0.0
 73
     1
 44
1.0
  0
MTEXT
  5
10A
100
AcDbEntity
  8
LAYER_1
 62
     7
100
AcDbMText
 10
68.986487
 20
84.60307
 30
0.0
 40
2.667331
 41
0.0
 71
     1
 72
     2
  1
\W0.50;\fMS Gothic|b0|i0|c128;30以上
  7
KANJISTD
210
0.0
220
0.0
230
1.0
 11
1.000001
 21
0.0
 31
0.0
 73
     1
 44
1.0
  0
MTEXT
  5
109
100
AcDbEntity
  8
LAYER_1
 62
     7
100
AcDbMText
 10
102.878475
 20
75.843915
 30
0.0
 40
2.667331
 41
0.0
 71
     1
 72
     2
  1
\W0.50;\fMS Gothic|b0|i0|c128;600\H2.6124;程度
  7
KANJISTD
210
0.0
220
0.0
230
1.0
 11
1.000001
 21
0.0
 31
0.0
 73
     1
 44
1.0
  0
MTEXT
  5
108
100
AcDbEntity
  8
LAYER_1
 62
     7
100
AcDbMText
 10
143.721804
 20
109.754334
 30
0.0
 40
2.667331
 41
0.0
 71
     1
 72
     2
  1
\W0.50;\fMS Gothic|b0|i0|c128;(25)
  7
STD
210
0.0
220
0.0
230
1.0
 11
1.000001
 21
0.0
 31
0.0
 73
     1
 44
1.0
  0
MTEXT
  5
107
100
AcDbEntity
  8
LAYER_1
 62
     7
100
AcDbMText
 10
117.246452
 20
91.043538
 30
0.0
 40
2.667331
 41
0.0
 71
     1
 72
     2
  1
\W0.50;\fMS Gothic|b0|i0|c128;(80)
  7
STD
210
0.0
220
0.0
230
1.0
 11
0.0
 21
1.0
 31
0.0
 73
     1
 44
1.0
  0
LINE
  5
106
100
AcDbEntity
  8
LAYER_1
 62
     7
100
AcDbLine
 10
120.438127
 20
89.18112
 30
0.0
 11
120.438127
 21
100.233675
 31
0.0
  0
POLYLINE
  5
100
100
AcDbEntity
  8
LAYER_1
 62
     7
100
AcDb2dPolyline
 66
     1
 10
0.0
 20
0.0
 30
0.0
  0
VERTEX
  5
101
100
AcDbEntity
  8
LAYER_1
 62
     7
100
AcDbVertex
100
AcDb2dVertex
 10
145.452276
 20
91.86416
 30
0.0
  0
VERTEX
  5
102
100
AcDbEntity
  8
LAYER_1
 62
     7
100
AcDbVertex
100
AcDb2dVertex
 10
145.452276
 20
72.82105
 30
0.0
  0
VERTEX
  5
103
100
AcDbEntity
  8
LAYER_1
 62
     7
100
AcDbVertex
100
AcDb2dVertex
 10
67.25791
 20
72.82105
 30
0.0
  0
VERTEX
  5
104
100
AcDbEntity
  8
LAYER_1
 62
     7
100
AcDbVertex
100
AcDb2dVertex
 10
67.25791
 20
81.11374
 30
0.0
  0
SEQEND
  5
105
100
AcDbEntity
  8
LAYER_1
 62
     7
  0
POLYLINE
  5
FA
100
AcDbEntity
  8
LAYER_1
 62
     7
100
AcDb2dPolyline
 66
     1
 10
0.0
 20
0.0
 30
0.0
  0
VERTEX
  5
FB
100
AcDbEntity
  8
LAYER_1
 62
     7
100
AcDbVertex
100
AcDb2dVertex
 10
147.272664
 20
100.709443
 30
0.0
  0
VERTEX
  5
FC
100
AcDbEntity
  8
LAYER_1
 62
     7
100
AcDbVertex
100
AcDb2dVertex
 10
147.272664
 20
106.52373
 30
0.0
  0
VERTEX
  5
FD
100
AcDbEntity
  8
LAYER_1
 62
     7
100
AcDbVertex
100
AcDb2dVertex
 10
143.766246
 20
106.52373
 30
0.0
  0
VERTEX
  5
FE
100
AcDbEntity
  8
LAYER_1
 62
     7
100
AcDbVertex
100
AcDb2dVertex
 10
143.766246
 20
100.709443
 30
0.0
  0
SEQEND
  5
FF
100
AcDbEntity
  8
LAYER_1
 62
     7
  0
POLYLINE
  5
F4
100
AcDbEntity
  8
LAYER_1
 62
     7
100
AcDb2dPolyline
 66
     1
 10
0.0
 20
0.0
 30
0.0
 70
     1
  0
VERTEX
  5
F5
100
AcDbEntity
  8
LAYER_1
 62
     7
100
AcDbVertex
100
AcDb2dVertex
 10
147.214787
 20
89.566626
 30
0.0
  0
VERTEX
  5
F6
100
AcDbEntity
  8
LAYER_1
 62
     7
100
AcDbVertex
100
AcDb2dVertex
 10
147.214787
 20
99.917071
 30
0.0
  0
VERTEX
  5
F7
100
AcDbEntity
  8
LAYER_1
 62
     7
100
AcDbVertex
100
AcDb2dVertex
 10
143.845828
 20
99.917071
 30
0.0
  0
VERTEX
  5
F8
100
AcDbEntity
  8
LAYER_1
 62
     7
100
AcDbVertex
100
AcDb2dVertex
 10
143.845828
 20
89.566626
 30
0.0
  0
SEQEND
  5
F9
100
AcDbEntity
  8
LAYER_1
 62
     7
  0
MTEXT
  5
F3
100
AcDbEntity
  8
LAYER_1
 62
     7
100
AcDbMText
 10
70.201572
 20
210.236401
 30
0.0
 40
2.667331
 41
0.0
 71
     1
 72
     2
  1
\W0.50;\fMS Gothic|b0|i0|c128;コンクリートこて仕上げA種
  7
KANJISTD
210
0.0
220
0.0
230
1.0
 11
1.000001
 21
0.0
 31
0.0
 73
     1
 44
1.0
  0
MTEXT
  5
F2
100
AcDbEntity
  8
LAYER_1
 62
     7
100
AcDbMText
 10
43.232848
 20
206.146728
 30
0.0
 40
2.667331
 41
0.0
 71
     1
 72
     2
  1
\W0.50;\fMS Gothic|b0|i0|c128;上部ホルダー
  7
KANJISTD
210
0.0
220
0.0
230
1.0
 11
1.000001
 21
0.0
 31
0.0
 73
     1
 44
1.0
  0
SPLINE
  5
F1
100
AcDbEntity
  8
LAYER_1
 62
     7
100
AcDbSpline
210
0.0
220
0.0
230
1.0
 70
     8
 71
     3
 72
    11
 73
     7
 74
     0
 42
0.00000001
 43
0.00000001
 40
0.0
 40
0.0
 40
0.0
 40
0.0
 40
1.0
 40
1.0
 40
1.0
 40
2.0
 40
2.0
 40
2.0
 40
2.0
 10
70.041891818576389
 20
162.62779947916664
 30
0.0
 10
69.81072591145832
 20
164.00997178819443
 30
0.0
 10
69.718397352430543
 20
165.41160888671874
 30
0.0
 10
69.76611192491319
 20
166.8118679470486
 30
0.0
 10
69.800390624999991
 20
167.2302747938368
 30
0.0
 10
69.893408203124991
 20
167.64161919487844
 30
0.0
 10
70.041891818576389
 20
168.03418782552083
 30
0.0
  0
LINE
  5
F0
100
AcDbEntity
  8
LAYER_1
 62
     7
100
AcDbLine
 10
69.175278
 20
162.645369
 30
0.0
 11
70.000378
 21
163.471503
 31
0.0
  0
LINE
  5
EF
100
AcDbEntity
  8
LAYER_1
 62
     7
100
AcDbLine
 10
67.827901
 20
162.646748
 30
0.0
 11
69.727699
 21
164.54534
 31
0.0
  0
LINE
  5
EE
100
AcDbEntity
  8
LAYER_1
 62
     7
100
AcDbLine
 10
66.975929
 20
163.141291
 30
0.0
 11
69.707545
 21
165.874113
 31
0.0
  0
LINE
  5
ED
100
AcDbEntity
  8
LAYER_1
 62
     7
100
AcDbLine
 10
66.084338
 20
163.598111
 30
0.0
 11
69.776619
 21
167.290219
 31
0.0
  0
LINE
  5
EC
100
AcDbEntity
  8
LAYER_1
 62
     7
100
AcDbLine
 10
65.350361
 20
164.211165
 30
0.0
 11
68.983903
 21
167.845569
 31
0.0
  0
LINE
  5
EB
100
AcDbEntity
  8
LAYER_1
 62
     7
100
AcDbLine
 10
65.350361
 20
165.558714
 30
0.0
 11
67.715936
 21
167.924978
 31
0.0
  0
LINE
  5
EA
100
AcDbEntity
  8
LAYER_1
 62
     7
100
AcDbLine
 10
65.350361
 20
166.906264
 30
0.0
 11
66.358912
 21
167.915677
 31
0.0
  0
LINE
  5
E9
100
AcDbEntity
  8
LAYER_1
 62
     7
100
AcDbLine
 10
59.955514
 20
157.814657
 30
0.0
 11
68.245275
 21
157.814657
 31
0.0
  0
POLYLINE
  5
E4
100
AcDbEntity
  8
LAYER_1
 62
     7
100
AcDb2dPolyline
 66
     1
 10
0.0
 20
0.0
 30
0.0
  0
VERTEX
  5
E5
100
AcDbEntity
  8
LAYER_1
 62
     7
100
AcDbVertex
100
AcDb2dVertex
 10
70.122507
 20
162.323425
 30
0.0
  0
VERTEX
  5
E6
100
AcDbEntity
  8
LAYER_1
 62
     7
100
AcDbVertex
100
AcDb2dVertex
 10
67.946412
 20
162.323425
 30
0.0
  0
VERTEX
  5
E7
100
AcDbEntity
  8
LAYER_1
 62
     7
100
AcDbVertex
100
AcDb2dVertex
 10
67.946412
 20
153.618358
 30
0.0
  0
SEQEND
  5
E8
100
AcDbEntity
  8
LAYER_1
 62
     7
  0
LINE
  5
E3
100
AcDbEntity
  8
LAYER_1
 62
     7
100
AcDbLine
 10
68.756699
 20
81.11374
 30
0.0
 11
67.341454
 21
81.11374
 31
0.0
  0
LINE
  5
E2
100
AcDbEntity
  8
LAYER_1
 62
     7
100
AcDbLine
 10
82.617179
 20
167.989746
 30
0.0
 11
161.138485
 21
167.988368
 31
0.0
  0
LINE
  5
E1
100
AcDbEntity
  8
LAYER_1
 62
     7
100
AcDbLine
 10
161.118503
 20
167.763231
 30
0.0
 11
161.118503
 21
100.233675
 31
0.0
  0
POLYLINE
  5
DC
100
AcDbEntity
  8
LAYER_1
 62
     7
100
AcDb2dPolyline
 66
     1
 10
0.0
 20
0.0
 30
0.0
  0
VERTEX
  5
DD
100
AcDbEntity
  8
LAYER_1
 62
     7
100
AcDbVertex
100
AcDb2dVertex
 10
77.883446
 20
169.515062
 30
0.0
  0
VERTEX
  5
DE
100
AcDbEntity
  8
LAYER_1
 62
     7
100
AcDbVertex
100
AcDb2dVertex
 10
99.812857
 20
169.515062
 30
0.0
  0
VERTEX
  5
DF
100
AcDbEntity
  8
LAYER_1
 62
     7
100
AcDbVertex
100
AcDb2dVertex
 10
99.812857
 20
161.69814
 30
0.0
  0
SEQEND
  5
E0
100
AcDbEntity
  8
LAYER_1
 62
     7
  0
POLYLINE
  5
D7
100
AcDbEntity
  8
LAYER_1
 62
     7
100
AcDb2dPolyline
 66
     1
 10
0.0
 20
0.0
 30
0.0
  0
VERTEX
  5
D8
100
AcDbEntity
  8
LAYER_1
 62
     7
100
AcDbVertex
100
AcDb2dVertex
 10
48.483346
 20
194.879405
 30
0.0
  0
VERTEX
  5
D9
100
AcDbEntity
  8
LAYER_1
 62
     7
100
AcDbVertex
100
AcDb2dVertex
 10
161.138485
 20
194.879405
 30
0.0
  0
VERTEX
  5
DA
100
AcDbEntity
  8
LAYER_1
 62
     7
100
AcDbVertex
100
AcDb2dVertex
 10
161.138485
 20
166.473732
 30
0.0
  0
SEQEND
  5
DB
100
AcDbEntity
  8
LAYER_1
 62
     7
  0
LINE
  5
D6
100
AcDbEntity
  8
LAYER_1
 62
     7
100
AcDbLine
 10
82.874528
 20
190.83693
 30
0.0
 11
161.158811
 21
190.83693
 31
0.0
  0
MTEXT
  5
D5
100
AcDbEntity
  8
LAYER_1
 62
     7
100
AcDbMText
 10
92.432601
 20
124.080075
 30
0.0
 40
2.667331
 41
0.0
 71
     1
 72
     2
  1
\W0.50;\fMS Gothic|b0|i0|c128;下部ホルダー
  7
KANJISTD
210
0.0
220
0.0
230
1.0
 11
1.000001
 21
0.0
 31
0.0
 73
     1
 44
1.0
  0
MTEXT
  5
D4
100
AcDbEntity
  8
LAYER_1
 62
     7
100
AcDbMText
 10
86.778338
 20
143.28476
 30
0.0
 40
2.667331
 41
0.0
 71
     1
 72
     2
  1
\W0.50;\fMS Gothic|b0|i0|c128;ボード
  7
KANJISTD
210
0.0
220
0.0
230
1.0
 11
1.000001
 21
0.0
 31
0.0
 73
     1
 44
1.0
  0
SPLINE
  5
D3
100
AcDbEntity
  8
LAYER_1
 62
     7
100
AcDbSpline
210
0.0
220
0.0
230
1.0
 70
     8
 71
     3
 72
    17
 73
    13
 74
     0
 42
0.00000001
 43
0.00000001
 40
0.0
 40
0.0
 40
0.0
 40
0.0
 40
1.0
 40
1.0
 40
1.0
 40
2.0
 40
2.0
 40
2.0
 40
3.0
 40
3.0
 40
3.0
 40
4.0
 40
4.0
 40
4.0
 40
4.0
 10
181.57513563368053
 20
94.043183051215266
 30
0.0
 10
181.82214898003471
 20
94.203724500868049
 30
0.0
 10
181.96339789496525
 20
94.484844292534717
 30
0.0
 10
181.94582790798609
 20
94.778710937499994
 30
0.0
 10
181.86590169270832
 20
95.164217122395826
 30
0.0
 10
181.51656901041665
 20
95.43362358940972
 30
0.0
 10
181.12382812499999
 20
95.413642035590271
 30
0.0
 10
180.73832194010416
 20
95.333715820312491
 30
0.0
 10
180.46891547309025
 20
94.984727647569443
 30
0.0
 10
180.48889702690971
 20
94.59164225260416
 30
0.0
 10
180.66631944444444
 20
94.16582845052082
 30
0.0
 10
181.1272732204861
 20
93.932939995659709
 30
0.0
 10
181.57513563368053
 20
94.043183051215266
 30
0.0
  0
SPLINE
  5
D2
100
AcDbEntity
  8
LAYER_1
 62
     7
100
AcDbSpline
210
0.0
220
0.0
230
1.0
 70
     8
 71
     3
 72
    17
 73
    13
 74
     0
 42
0.00000001
 43
0.00000001
 40
0.0
 40
0.0
 40
0.0
 40
0.0
 40
1.0
 40
1.0
 40
1.0
 40
2.0
 40
2.0
 40
2.0
 40
3.0
 40
3.0
 40
3.0
 40
4.0
 40
4.0
 40
4.0
 40
4.0
 10
172.14246419270833
 20
94.043183051215266
 30
0.0
 10
172.38947753906248
 20
94.203724500868049
 30
0.0
 10
172.53107096354165
 20
94.484844292534717
 30
0.0
 10
172.51315646701389
 20
94.778710937499994
 30
0.0
 10
172.43323025173609
 20
95.164217122395826
 30
0.0
 10
172.08389756944442
 20
95.43362358940972
 30
0.0
 10
171.69115668402776
 20
95.413642035590271
 30
0.0
 10
171.30565049913193
 20
95.333715820312491
 30
0.0
 10
171.03624403211805
 20
94.984727647569443
 30
0.0
 10
171.05622558593748
 20
94.59164225260416
 30
0.0
 10
171.23364800347221
 20
94.16582845052082
 30
0.0
 10
171.69460177951387
 20
93.932939995659709
 30
0.0
 10
172.14246419270833
 20
94.043183051215266
 30
0.0
  0
SPLINE
  5
D1
100
AcDbEntity
  8
LAYER_1
 62
     7
100
AcDbSpline
210
0.0
220
0.0
230
1.0
 70
     8
 71
     3
 72
    17
 73
    13
 74
     0
 42
0.00000001
 43
0.00000001
 40
0.0
 40
0.0
 40
0.0
 40
0.0
 40
1.0
 40
1.0
 40
1.0
 40
2.0
 40
2.0
 40
2.0
 40
3.0
 40
3.0
 40
3.0
 40
4.0
 40
4.0
 40
4.0
 40
4.0
 10
162.7097927517361
 20
94.043183051215266
 30
0.0
 10
162.95680609809025
 20
94.203724500868049
 30
0.0
 10
163.09839952256942
 20
94.484844292534717
 30
0.0
 10
163.08048502604166
 20
94.778710937499994
 30
0.0
 10
163.00055881076386
 20
95.164217122395826
 30
0.0
 10
162.65122612847222
 20
95.43362358940972
 30
0.0
 10
162.25848524305553
 20
95.413642035590271
 30
0.0
 10
161.8729790581597
 20
95.333715820312491
 30
0.0
 10
161.60357259114582
 20
94.984727647569443
 30
0.0
 10
161.62355414496525
 20
94.59164225260416
 30
0.0
 10
161.80097656249998
 20
94.16582845052082
 30
0.0
 10
162.26193033854165
 20
93.932939995659709
 30
0.0
 10
162.7097927517361
 20
94.043183051215266
 30
0.0
  0
SPLINE
  5
D0
100
AcDbEntity
  8
LAYER_1
 62
     7
100
AcDbSpline
210
0.0
220
0.0
230
1.0
 70
     8
 71
     3
 72
    17
 73
    13
 74
     0
 42
0.00000001
 43
0.00000001
 40
0.0
 40
0.0
 40
0.0
 40
0.0
 40
1.0
 40
1.0
 40
1.0
 40
2.0
 40
2.0
 40
2.0
 40
3.0
 40
3.0
 40
3.0
 40
4.0
 40
4.0
 40
4.0
 40
4.0
 10
153.27712131076387
 20
94.043183051215266
 30
0.0
 10
153.52413465711805
 20
94.203724500868049
 30
0.0
 10
153.66572808159719
 20
94.484844292534717
 30
0.0
 10
153.64781358506943
 20
94.778710937499994
 30
0.0
 10
153.56788736979166
 20
95.164217122395826
 30
0.0
 10
153.21889919704859
 20
95.43362358940972
 30
0.0
 10
152.82581380208333
 20
95.413642035590271
 30
0.0
 10
152.4403076171875
 20
95.333715820312491
 30
0.0
 10
152.17090115017359
 20
94.984727647569443
 30
0.0
 10
152.19088270399305
 20
94.59164225260416
 30
0.0
 10
152.36830512152775
 20
94.16582845052082
 30
0.0
 10
152.82925889756942
 20
93.932939995659709
 30
0.0
 10
153.27712131076387
 20
94.043183051215266
 30
0.0
  0
SPLINE
  5
CF
100
AcDbEntity
  8
LAYER_1
 62
     7
100
AcDbSpline
210
0.0
220
0.0
230
1.0
 70
     8
 71
     3
 72
    17
 73
    13
 74
     0
 42
0.00000001
 43
0.00000001
 40
0.0
 40
0.0
 40
0.0
 40
0.0
 40
1.0
 40
1.0
 40
1.0
 40
2.0
 40
2.0
 40
2.0
 40
3.0
 40
3.0
 40
3.0
 40
4.0
 40
4.0
 40
4.0
 40
4.0
 10
138.21585286458333
 20
94.025613064236097
 30
0.0
 10
138.46286621093748
 20
94.18615451388888
 30
0.0
 10
138.60445963541665
 20
94.467274305555549
 30
0.0
 10
138.58654513888888
 20
94.761485460069437
 30
0.0
 10
138.50661892361109
 20
95.146647135416657
 30
0.0
 10
138.15763075086804
 20
95.416053602430551
 30
0.0
 10
137.76454535590275
 20
95.396072048611103
 30
0.0
 10
137.37903917100692
 20
95.316145833333323
 30
0.0
 10
137.10963270399304
 20
94.967157660590274
 30
0.0
 10
137.1299587673611
 20
94.574072265624991
 30
0.0
 10
137.30703667534721
 20
94.148258463541652
 30
0.0
 10
137.76799045138887
 20
93.91537000868054
 30
0.0
 10
138.21585286458333
 20
94.025613064236097
 30
0.0
  0
SPLINE
  5
CE
100
AcDbEntity
  8
LAYER_1
 62
     7
100
AcDbSpline
210
0.0
220
0.0
230
1.0
 70
     8
 71
     3
 72
    17
 73
    13
 74
     0
 42
0.00000001
 43
0.00000001
 40
0.0
 40
0.0
 40
0.0
 40
0.0
 40
1.0
 40
1.0
 40
1.0
 40
2.0
 40
2.0
 40
2.0
 40
3.0
 40
3.0
 40
3.0
 40
4.0
 40
4.0
 40
4.0
 40
4.0
 10
128.7831814236111
 20
94.025613064236097
 30
0.0
 10
129.03019476996528
 20
94.18615451388888
 30
0.0
 10
129.17178819444445
 20
94.467274305555549
 30
0.0
 10
129.15387369791665
 20
94.761485460069437
 30
0.0
 10
129.07394748263889
 20
95.146647135416657
 30
0.0
 10
128.72495930989581
 20
95.416053602430551
 30
0.0
 10
128.33187391493055
 20
95.396072048611103
 30
0.0
 10
127.94636773003471
 20
95.316145833333323
 30
0.0
 10
127.67696126302083
 20
94.967157660590274
 30
0.0
 10
127.69694281684026
 20
94.574072265624991
 30
0.0
 10
127.87436523437499
 20
94.148258463541652
 30
0.0
 10
128.33566351996527
 20
93.91537000868054
 30
0.0
 10
128.7831814236111
 20
94.025613064236097
 30
0.0
  0
SPLINE
  5
CD
100
AcDbEntity
  8
LAYER_1
 62
     7
100
AcDbSpline
210
0.0
220
0.0
230
1.0
 70
     8
 71
     3
 72
    17
 73
    13
 74
     0
 42
0.00000001
 43
0.00000001
 40
0.0
 40
0.0
 40
0.0
 40
0.0
 40
1.0
 40
1.0
 40
1.0
 40
2.0
 40
2.0
 40
2.0
 40
3.0
 40
3.0
 40
3.0
 40
4.0
 40
4.0
 40
4.0
 40
4.0
 10
109.91783854166665
 20
94.025613064236097
 30
0.0
 10
110.16485188802082
 20
94.18615451388888
 30
0.0
 10
110.30644531249999
 20
94.467274305555549
 30
0.0
 10
110.28853081597221
 20
94.761485460069437
 30
0.0
 10
110.20860460069443
 20
95.146647135416657
 30
0.0
 10
109.85961642795138
 20
95.416053602430551
 30
0.0
 10
109.4665310329861
 20
95.396072048611103
 30
0.0
 10
109.08102484809027
 20
95.316145833333323
 30
0.0
 10
108.81161838107639
 20
94.967157660590274
 30
0.0
 10
108.83194444444443
 20
94.574072265624991
 30
0.0
 10
109.00902235243055
 20
94.148258463541652
 30
0.0
 10
109.47032063802082
 20
93.91537000868054
 30
0.0
 10
109.91783854166665
 20
94.025613064236097
 30
0.0
  0
SPLINE
  5
CC
100
AcDbEntity
  8
LAYER_1
 62
     7
100
AcDbSpline
210
0.0
220
0.0
230
1.0
 70
     8
 71
     3
 72
    17
 73
    13
 74
     0
 42
0.00000001
 43
0.00000001
 40
0.0
 40
0.0
 40
0.0
 40
0.0
 40
1.0
 40
1.0
 40
1.0
 40
2.0
 40
2.0
 40
2.0
 40
3.0
 40
3.0
 40
3.0
 40
4.0
 40
4.0
 40
4.0
 40
4.0
 10
100.48533935546874
 20
94.025613064236097
 30
0.0
 10
100.7323527018229
 20
94.18615451388888
 30
0.0
 10
100.87377387152777
 20
94.467274305555549
 30
0.0
 10
100.85585937499999
 20
94.761485460069437
 30
0.0
 10
100.77593315972221
 20
95.146647135416657
 30
0.0
 10
100.42694498697915
 20
95.416053602430551
 30
0.0
 10
100.03385959201388
 20
95.396072048611103
 30
0.0
 10
99.64852566189235
 20
95.316145833333323
 30
0.0
 10
99.37911919487847
 20
94.967157660590274
 30
0.0
 10
99.399273003472217
 20
94.574072265624991
 30
0.0
 10
99.57635091145832
 20
94.148258463541652
 30
0.0
 10
100.03764919704861
 20
93.91537000868054
 30
0.0
 10
100.48533935546874
 20
94.025613064236097
 30
0.0
  0
SPLINE
  5
CB
100
AcDbEntity
  8
LAYER_1
 62
     7
100
AcDbSpline
210
0.0
220
0.0
230
1.0
 70
     8
 71
     3
 72
    17
 73
    13
 74
     0
 42
0.00000001
 43
0.00000001
 40
0.0
 40
0.0
 40
0.0
 40
0.0
 40
1.0
 40
1.0
 40
1.0
 40
2.0
 40
2.0
 40
2.0
 40
3.0
 40
3.0
 40
3.0
 40
4.0
 40
4.0
 40
4.0
 40
4.0
 10
91.052667914496524
 20
94.025613064236097
 30
0.0
 10
91.299509006076377
 20
94.18615451388888
 30
0.0
 10
91.441102430555546
 20
94.467274305555549
 30
0.0
 10
91.423187934027766
 20
94.761485460069437
 30
0.0
 10
91.343261718749986
 20
95.146647135416657
 30
0.0
 10
90.994273546006937
 20
95.416053602430551
 30
0.0
 10
90.601188151041654
 20
95.396072048611103
 30
0.0
 10
90.215854220920136
 20
95.316145833333323
 30
0.0
 10
89.946447753906241
 20
94.967157660590274
 30
0.0
 10
89.966601562499989
 20
94.574072265624991
 30
0.0
 10
90.143679470486106
 20
94.148258463541652
 30
0.0
 10
90.604805501302081
 20
93.91537000868054
 30
0.0
 10
91.052667914496524
 20
94.025613064236097
 30
0.0
  0
SPLINE
  5
CA
100
AcDbEntity
  8
LAYER_1
 62
     7
100
AcDbSpline
210
0.0
220
0.0
230
1.0
 70
     8
 71
     3
 72
    17
 73
    13
 74
     0
 42
0.00000001
 43
0.00000001
 40
0.0
 40
0.0
 40
0.0
 40
0.0
 40
1.0
 40
1.0
 40
1.0
 40
2.0
 40
2.0
 40
2.0
 40
3.0
 40
3.0
 40
3.0
 40
4.0
 40
4.0
 40
4.0
 40
4.0
 10
81.619996473524296
 20
94.025613064236097
 30
0.0
 10
81.867009819878461
 20
94.18615451388888
 30
0.0
 10
82.008430989583331
 20
94.467274305555549
 30
0.0
 10
81.990516493055551
 20
94.761485460069437
 30
0.0
 10
81.91076253255207
 20
95.146647135416657
 30
0.0
 10
81.561602105034709
 20
95.416053602430551
 30
0.0
 10
81.16851671006944
 20
95.396072048611103
 30
0.0
 10
80.78335503472222
 20
95.316145833333323
 30
0.0
 10
80.513776312934027
 20
94.967157660590274
 30
0.0
 10
80.533930121527774
 20
94.574072265624991
 30
0.0
 10
80.71118028428819
 20
94.148258463541652
 30
0.0
 10
81.172306315104166
 20
93.91537000868054
 30
0.0
 10
81.619996473524296
 20
94.025613064236097
 30
0.0
  0
SPLINE
  5
C9
100
AcDbEntity
  8
LAYER_1
 62
     7
100
AcDbSpline
210
0.0
220
0.0
230
1.0
 70
     8
 71
     3
 72
    17
 73
    13
 74
     0
 42
0.00000001
 43
0.00000001
 40
0.0
 40
0.0
 40
0.0
 40
0.0
 40
1.0
 40
1.0
 40
1.0
 40
2.0
 40
2.0
 40
2.0
 40
3.0
 40
3.0
 40
3.0
 40
4.0
 40
4.0
 40
4.0
 40
4.0
 10
76.755349392361097
 20
96.234263780381937
 30
0.0
 10
76.833380805121521
 20
96.304543728298597
 30
0.0
 10
76.878339301215277
 20
96.404106987847214
 30
0.0
 10
76.879372829861097
 20
96.5091824001736
 30
0.0
 10
76.878339301215277
 20
96.711409505208323
 30
0.0
 10
76.715041775173603
 20
96.875051540798609
 30
0.0
 10
76.512986924913193
 20
96.877118598090263
 30
0.0
 10
76.310243055555546
 20
96.87539605034722
 30
0.0
 10
76.146428765190961
 20
96.711754014756934
 30
0.0
 10
76.145050726996516
 20
96.5091824001736
 30
0.0
 10
76.23910183376735
 20
96.26595865885416
 30
0.0
 10
76.511092122395823
 20
96.143657769097217
 30
0.0
 10
76.755349392361097
 20
96.234263780381937
 30
0.0
  0
SPLINE
  5
C8
100
AcDbEntity
  8
LAYER_1
 62
     7
100
AcDbSpline
210
0.0
220
0.0
230
1.0
 70
     8
 71
     3
 72
    17
 73
    13
 74
     0
 42
0.00000001
 43
0.00000001
 40
0.0
 40
0.0
 40
0.0
 40
0.0
 40
1.0
 40
1.0
 40
1.0
 40
2.0
 40
2.0
 40
2.0
 40
3.0
 40
3.0
 40
3.0
 40
4.0
 40
4.0
 40
4.0
 40
4.0
 10
68.451463487413193
 20
98.93831922743054
 30
0.0
 10
68.529494900173603
 20
99.008599175347214
 30
0.0
 10
68.574281141493046
 20
99.108162434895817
 30
0.0
 10
68.575142415364581
 20
99.213237847222217
 30
0.0
 10
68.573936631944434
 20
99.41546495225694
 30
0.0
 10
68.410294596354163
 20
99.579451497395823
 30
0.0
 10
68.207895236545127
 20
99.58117404513888
 30
0.0
 10
68.005668131510404
 20
99.579451497395823
 30
0.0
 10
67.842026095920133
 20
99.41546495225694
 30
0.0
 10
67.8408203125
 20
99.213237847222217
 30
0.0
 10
67.935043674045133
 20
98.970014105902763
 30
0.0
 10
68.206861707899293
 20
98.847368706597209
 30
0.0
 10
68.451463487413193
 20
98.93831922743054
 30
0.0
  0
SPLINE
  5
C7
100
AcDbEntity
  8
LAYER_1
 62
     7
100
AcDbSpline
210
0.0
220
0.0
230
1.0
 70
     8
 71
     3
 72
    17
 73
    13
 74
     0
 42
0.00000001
 43
0.00000001
 40
0.0
 40
0.0
 40
0.0
 40
0.0
 40
1.0
 40
1.0
 40
1.0
 40
2.0
 40
2.0
 40
2.0
 40
3.0
 40
3.0
 40
3.0
 40
4.0
 40
4.0
 40
4.0
 40
4.0
 10
78.497878689236103
 20
102.94875488281249
 30
0.0
 10
78.575737847222214
 20
103.01903483072915
 30
0.0
 10
78.620868598090269
 20
103.11894259982638
 30
0.0
 10
78.621729871961804
 20
103.22367350260416
 30
0.0
 10
78.620351833767359
 20
103.42624511718749
 30
0.0
 10
78.456537543402774
 20
103.59023166232637
 30
0.0
 10
78.25396592881944
 20
103.59160970052082
 30
0.0
 10
78.051738823784717
 20
103.58988715277776
 30
0.0
 10
77.888441297743043
 20
103.42590060763888
 30
0.0
 10
77.887407769097209
 20
103.22367350260416
 30
0.0
 10
77.981458875868043
 20
102.98079427083333
 30
0.0
 10
78.253449164496516
 20
102.85814887152777
 30
0.0
 10
78.497878689236103
 20
102.94875488281249
 30
0.0
  0
POLYLINE
  5
C2
100
AcDbEntity
  8
LAYER_1
 62
     7
100
AcDb2dPolyline
 66
     1
 10
0.0
 20
0.0
 30
0.0
  0
VERTEX
  5
C3
100
AcDbEntity
  8
LAYER_1
 62
     7
100
AcDbVertex
100
AcDb2dVertex
 10
140.758678
 20
94.021479
 30
0.0
  0
VERTEX
  5
C4
100
AcDbEntity
  8
LAYER_1
 62
     7
100
AcDbVertex
100
AcDb2dVertex
 10
133.855396
 20
106.108941
 30
0.0
  0
VERTEX
  5
C5
100
AcDbEntity
  8
LAYER_1
 62
     7
100
AcDbVertex
100
AcDb2dVertex
 10
132.408111
 20
106.108941
 30
0.0
  0
SEQEND
  5
C6
100
AcDbEntity
  8
LAYER_1
 62
     7
  0
POLYLINE
  5
BD
100
AcDbEntity
  8
LAYER_1
 62
     7
100
AcDb2dPolyline
 66
     1
 10
0.0
 20
0.0
 30
0.0
  0
VERTEX
  5
BE
100
AcDbEntity
  8
LAYER_1
 62
     7
100
AcDbVertex
100
AcDb2dVertex
 10
145.224211
 20
98.181432
 30
0.0
  0
VERTEX
  5
BF
100
AcDbEntity
  8
LAYER_1
 62
     7
100
AcDbVertex
100
AcDb2dVertex
 10
136.559795
 20
113.526921
 30
0.0
  0
VERTEX
  5
C0
100
AcDbEntity
  8
LAYER_1
 62
     7
100
AcDbVertex
100
AcDb2dVertex
 10
135.111133
 20
113.526921
 30
0.0
  0
SEQEND
  5
C1
100
AcDbEntity
  8
LAYER_1
 62
     7
  0
LINE
  5
BC
100
AcDbEntity
  8
LAYER_1
 62
     7
100
AcDbLine
 10
67.223976
 20
94.687071
 30
0.0
 11
67.223976
 21
81.109606
 31
0.0
  0
POLYLINE
  5
B7
100
AcDbEntity
  8
LAYER_1
 62
     7
100
AcDb2dPolyline
 66
     1
 10
0.0
 20
0.0
 30
0.0
  0
VERTEX
  5
B8
100
AcDbEntity
  8
LAYER_1
 62
     7
100
AcDbVertex
100
AcDb2dVertex
 10
76.415491
 20
94.607834
 30
0.0
  0
VERTEX
  5
B9
100
AcDbEntity
  8
LAYER_1
 62
     7
100
AcDbVertex
100
AcDb2dVertex
 10
76.415491
 20
81.109606
 30
0.0
  0
VERTEX
  5
BA
100
AcDbEntity
  8
LAYER_1
 62
     7
100
AcDbVertex
100
AcDb2dVertex
 10
67.341454
 20
81.109606
 30
0.0
  0
SEQEND
  5
BB
100
AcDbEntity
  8
LAYER_1
 62
     7
  0
LINE
  5
B6
100
AcDbEntity
  8
LAYER_1
 62
     7
100
AcDbLine
 10
76.459071
 20
101.798093
 30
0.0
 11
76.459071
 21
95.156293
 31
0.0
  0
POLYLINE
  5
B0
100
AcDbEntity
  8
LAYER_1
 62
     7
100
AcDb2dPolyline
 66
     1
 10
0.0
 20
0.0
 30
0.0
 70
     1
  0
VERTEX
  5
B1
100
AcDbEntity
  8
LAYER_1
 62
     7
100
AcDbVertex
100
AcDb2dVertex
 10
77.588201
 20
102.307623
 30
0.0
  0
VERTEX
  5
B2
100
AcDbEntity
  8
LAYER_1
 62
     7
100
AcDbVertex
100
AcDb2dVertex
 10
77.588201
 20
169.418083
 30
0.0
  0
VERTEX
  5
B3
100
AcDbEntity
  8
LAYER_1
 62
     7
100
AcDbVertex
100
AcDb2dVertex
 10
75.56972
 20
169.418083
 30
0.0
  0
VERTEX
  5
B4
100
AcDbEntity
  8
LAYER_1
 62
     7
100
AcDbVertex
100
AcDb2dVertex
 10
75.56972
 20
102.307623
 30
0.0
  0
SEQEND
  5
B5
100
AcDbEntity
  8
LAYER_1
 62
     7
  0
POLYLINE
  5
A6
100
AcDbEntity
  8
LAYER_1
 62
     7
100
AcDb2dPolyline
 66
     1
 10
0.0
 20
0.0
 30
0.0
 70
     1
  0
VERTEX
  5
A7
100
AcDbEntity
  8
LAYER_1
 62
     7
100
AcDbVertex
100
AcDb2dVertex
 10
78.450681
 20
104.091493
 30
0.0
  0
VERTEX
  5
A8
100
AcDbEntity
  8
LAYER_1
 62
     7
100
AcDbVertex
100
AcDb2dVertex
 10
78.449303
 20
101.139046
 30
0.0
  0
VERTEX
  5
A9
100
AcDbEntity
  8
LAYER_1
 62
     7
100
AcDbVertex
100
AcDb2dVertex
 10
74.608366
 20
101.139046
 30
0.0
  0
VERTEX
  5
AA
100
AcDbEntity
  8
LAYER_1
 62
     7
100
AcDbVertex
100
AcDb2dVertex
 10
74.608538
 20
104.091493
 30
0.0
  0
VERTEX
  5
AB
100
AcDbEntity
  8
LAYER_1
 62
     7
100
AcDbVertex
100
AcDb2dVertex
 10
75.048132
 20
104.091493
 30
0.0
  0
VERTEX
  5
AC
100
AcDbEntity
  8
LAYER_1
 62
     7
100
AcDbVertex
100
AcDb2dVertex
 10
75.048132
 20
101.579674
 30
0.0
  0
VERTEX
  5
AD
100
AcDbEntity
  8
LAYER_1
 62
     7
100
AcDbVertex
100
AcDb2dVertex
 10
78.010053
 20
101.579674
 30
0.0
  0
VERTEX
  5
AE
100
AcDbEntity
  8
LAYER_1
 62
     7
100
AcDbVertex
100
AcDb2dVertex
 10
78.010053
 20
104.091493
 30
0.0
  0
SEQEND
  5
AF
100
AcDbEntity
  8
LAYER_1
 62
     7
  0
LINE
  5
A5
100
AcDbEntity
  8
LAYER_1
 62
     7
100
AcDbLine
 10
159.641591
 20
99.906047
 30
0.0
 11
169.98928
 21
89.558702
 31
0.0
  0
LINE
  5
A4
100
AcDbEntity
  8
LAYER_1
 62
     7
100
AcDbLine
 10
158.238748
 20
99.961513
 30
0.0
 11
168.638802
 21
89.562492
 31
0.0
  0
LINE
  5
A3
100
AcDbEntity
  8
LAYER_1
 62
     7
100
AcDbLine
 10
157.029864
 20
99.822675
 30
0.0
 11
167.275233
 21
89.577306
 31
0.0
  0
LINE
  5
A2
100
AcDbEntity
  8
LAYER_1
 62
     7
100
AcDbLine
 10
132.690953
 20
99.985628
 30
0.0
 11
143.124769
 21
89.551812
 31
0.0
  0
LINE
  5
A1
100
AcDbEntity
  8
LAYER_1
 62
     7
100
AcDbLine
 10
131.288455
 20
100.041094
 30
0.0
 11
141.773258
 21
89.555946
 31
0.0
  0
LINE
  5
A0
100
AcDbEntity
  8
LAYER_1
 62
     7
100
AcDbLine
 10
130.079571
 20
99.902257
 30
0.0
 11
140.40969
 21
89.572138
 31
0.0
  0
LINE
  5
9F
100
AcDbEntity
  8
LAYER_1
 62
     7
100
AcDbLine
 10
105.74066
 20
99.917071
 30
0.0
 11
116.185156
 21
89.47223
 31
0.0
  0
LINE
  5
9E
100
AcDbEntity
  8
LAYER_1
 62
     7
100
AcDbLine
 10
104.337817
 20
99.972192
 30
0.0
 11
114.833645
 21
89.474986
 31
0.0
  0
LINE
  5
9D
100
AcDbEntity
  8
LAYER_1
 62
     7
100
AcDbLine
 10
103.129106
 20
99.831977
 30
0.0
 11
113.471455
 21
89.491178
 31
0.0
  0
LINE
  5
9C
100
AcDbEntity
  8
LAYER_1
 62
     7
100
AcDbLine
 10
78.790195
 20
99.926373
 30
0.0
 11
89.166134
 21
89.549056
 31
0.0
  0
LINE
  5
9B
100
AcDbEntity
  8
LAYER_1
 62
     7
100
AcDbLine
 10
77.387352
 20
99.981494
 30
0.0
 11
87.816001
 21
89.55319
 31
0.0
  0
LINE
  5
9A
100
AcDbEntity
  8
LAYER_1
 62
     7
100
AcDbLine
 10
146.59088
 20
100.024902
 30
0.0
 11
143.922654
 21
97.355298
 31
0.0
  0
LINE
  5
99
100
AcDbEntity
  8
LAYER_1
 62
     7
100
AcDbLine
 10
144.475247
 20
99.99114
 30
0.0
 11
147.110745
 21
97.355298
 31
0.0
  0
LINE
  5
98
100
AcDbEntity
  8
LAYER_1
 62
     7
100
AcDbLine
 10
147.160699
 20
97.899623
 30
0.0
 11
143.922654
 21
94.6602
 31
0.0
  0
LINE
  5
97
100
AcDbEntity
  8
LAYER_1
 62
     7
100
AcDbLine
 10
143.871666
 20
97.899623
 30
0.0
 11
147.110745
 21
94.6602
 31
0.0
  0
LINE
  5
96
100
AcDbEntity
  8
LAYER_1
 62
     7
100
AcDbLine
 10
147.160699
 20
95.203491
 30
0.0
 11
143.922654
 21
91.965446
 31
0.0
  0
LINE
  5
95
100
AcDbEntity
  8
LAYER_1
 62
     7
100
AcDbLine
 10
143.871666
 20
95.203491
 30
0.0
 11
147.110745
 21
91.965446
 31
0.0
  0
LINE
  5
94
100
AcDbEntity
  8
LAYER_1
 62
     7
100
AcDbLine
 10
147.160699
 20
92.509771
 30
0.0
 11
144.263718
 21
89.611068
 31
0.0
  0
LINE
  5
93
100
AcDbEntity
  8
LAYER_1
 62
     7
100
AcDbLine
 10
143.871666
 20
92.509771
 30
0.0
 11
146.798275
 21
89.58144
 31
0.0
  0
LINE
  5
92
100
AcDbEntity
  8
LAYER_1
 62
     7
100
AcDbLine
 10
76.17864
 20
99.843001
 30
0.0
 11
86.471208
 21
89.550434
 31
0.0
  0
LINE
  5
91
100
AcDbEntity
  8
LAYER_1
 62
     7
100
AcDbLine
 10
77.161009
 20
171.518902
 30
0.0
 11
55.025926
 21
193.654502
 31
0.0
  0
LINE
  5
90
100
AcDbEntity
  8
LAYER_1
 62
     7
100
AcDbLine
 10
77.731173
 20
172.296288
 30
0.0
 11
56.709717
 21
193.317744
 31
0.0
  0
LINE
  5
8F
100
AcDbEntity
  8
LAYER_1
 62
     7
100
AcDbLine
 10
79.202573
 20
172.172437
 30
0.0
 11
57.918429
 21
193.456409
 31
0.0
  0
LINE
  5
8E
100
AcDbEntity
  8
LAYER_1
 62
     7
100
AcDbLine
 10
65.39463
 20
156.334988
 30
0.0
 11
38.353731
 21
183.375715
 31
0.0
  0
LINE
  5
8D
100
AcDbEntity
  8
LAYER_1
 62
     7
100
AcDbLine
 10
65.325728
 20
157.751267
 30
0.0
 11
38.403685
 21
184.67331
 31
0.0
  0
LINE
  5
8C
100
AcDbEntity
  8
LAYER_1
 62
     7
100
AcDbLine
 10
65.316082
 20
159.108118
 30
0.0
 11
38.453467
 21
185.971077
 31
0.0
  0
LINE
  5
8B
100
AcDbEntity
  8
LAYER_1
 62
     7
100
AcDbLine
 10
45.941899
 20
148.836049
 30
0.0
 11
38.470692
 21
156.307944
 31
0.0
  0
LINE
  5
8A
100
AcDbEntity
  8
LAYER_1
 62
     7
100
AcDbLine
 10
65.348638
 20
129.430515
 30
0.0
 11
52.062455
 21
142.71687
 31
0.0
  0
LINE
  5
89
100
AcDbEntity
  8
LAYER_1
 62
     7
100
AcDbLine
 10
47.387805
 20
148.738897
 30
0.0
 11
38.470692
 21
157.655493
 31
0.0
  0
LINE
  5
88
100
AcDbEntity
  8
LAYER_1
 62
     7
100
AcDbLine
 10
65.279909
 20
130.846449
 30
0.0
 11
53.389506
 21
142.737196
 31
0.0
  0
LINE
  5
87
100
AcDbEntity
  8
LAYER_1
 62
     7
100
AcDbLine
 10
48.774801
 20
148.698589
 30
0.0
 11
38.470692
 21
159.003042
 31
0.0
  0
LINE
  5
86
100
AcDbEntity
  8
LAYER_1
 62
     7
100
AcDbLine
 10
65.388946
 20
132.084961
 30
0.0
 11
54.895185
 21
142.578033
 31
0.0
  0
LINE
  5
85
100
AcDbEntity
  8
LAYER_1
 62
     7
100
AcDbLine
 10
65.362246
 20
102.465063
 30
0.0
 11
38.470692
 21
129.357479
 31
0.0
  0
LINE
  5
84
100
AcDbEntity
  8
LAYER_1
 62
     7
100
AcDbLine
 10
65.322972
 20
103.853092
 30
0.0
 11
38.470692
 21
130.7052
 31
0.0
  0
LINE
  5
83
100
AcDbEntity
  8
LAYER_1
 62
     7
100
AcDbLine
 10
65.313498
 20
105.210116
 30
0.0
 11
38.470692
 21
132.052577
 31
0.0
  0
LINE
  5
82
100
AcDbEntity
  8
LAYER_1
 62
     7
100
AcDbLine
 10
51.514341
 20
62.412728
 30
0.0
 11
38.470692
 21
75.456893
 31
0.0
  0
LINE
  5
81
100
AcDbEntity
  8
LAYER_1
 62
     7
100
AcDbLine
 10
52.900991
 20
62.373798
 30
0.0
 11
38.470692
 21
76.80427
 31
0.0
  0
LINE
  5
80
100
AcDbEntity
  8
LAYER_1
 62
     7
100
AcDbLine
 10
54.228559
 20
62.39378
 30
0.0
 11
38.470692
 21
78.151647
 31
0.0
  0
LINE
  5
7F
100
AcDbEntity
  8
LAYER_1
 62
     7
100
AcDbLine
 10
186.652517
 20
62.233583
 30
0.0
 11
161.751712
 21
87.134389
 31
0.0
  0
LINE
  5
7E
100
AcDbEntity
  8
LAYER_1
 62
     7
100
AcDbLine
 10
186.663197
 20
63.57028
 30
0.0
 11
163.108735
 21
87.125087
 31
0.0
  0
LINE
  5
7D
100
AcDbEntity
  8
LAYER_1
 62
     7
100
AcDbLine
 10
186.702471
 20
64.878727
 30
0.0
 11
164.43613
 21
87.145068
 31
0.0
  0
LINE
  5
7C
100
AcDbEntity
  8
LAYER_1
 62
     7
100
AcDbLine
 10
159.495863
 20
62.233583
 30
0.0
 11
134.595058
 21
87.134389
 31
0.0
  0
LINE
  5
7B
100
AcDbEntity
  8
LAYER_1
 62
     7
100
AcDbLine
 10
160.80431
 20
62.272512
 30
0.0
 11
135.952081
 21
87.125087
 31
0.0
  0
LINE
  5
7A
100
AcDbEntity
  8
LAYER_1
 62
     7
100
AcDbLine
 10
162.348747
 20
62.074419
 30
0.0
 11
137.279476
 21
87.145068
 31
0.0
  0
LINE
  5
79
100
AcDbEntity
  8
LAYER_1
 62
     7
100
AcDbLine
 10
109.618804
 20
85.160349
 30
0.0
 11
107.643387
 21
87.134389
 31
0.0
  0
LINE
  5
78
100
AcDbEntity
  8
LAYER_1
 62
     7
100
AcDbLine
 10
132.657536
 20
62.121617
 30
0.0
 11
109.618804
 21
85.160349
 31
0.0
  0
LINE
  5
77
100
AcDbEntity
  8
LAYER_1
 62
     7
100
AcDbLine
 10
111.005455
 20
85.121075
 30
0.0
 11
109.001788
 21
87.125087
 31
0.0
  0
LINE
  5
76
100
AcDbEntity
  8
LAYER_1
 62
     7
100
AcDbLine
 10
133.868831
 20
62.256321
 30
0.0
 11
111.005455
 21
85.121075
 31
0.0
  0
LINE
  5
75
100
AcDbEntity
  8
LAYER_1
 62
     7
100
AcDbLine
 10
112.392106
 20
85.082145
 30
0.0
 11
110.328838
 21
87.145068
 31
0.0
  0
LINE
  5
74
100
AcDbEntity
  8
LAYER_1
 62
     7
100
AcDbLine
 10
135.192093
 20
62.280781
 30
0.0
 11
112.392106
 21
85.082145
 31
0.0
  0
LINE
  5
73
100
AcDbEntity
  8
LAYER_1
 62
     7
100
AcDbLine
 10
85.724655
 20
82.104205
 30
0.0
 11
80.692921
 21
87.134389
 31
0.0
  0
LINE
  5
72
100
AcDbEntity
  8
LAYER_1
 62
     7
100
AcDbLine
 10
105.706898
 20
62.121617
 30
0.0
 11
85.724655
 21
82.104205
 31
0.0
  0
LINE
  5
71
100
AcDbEntity
  8
LAYER_1
 62
     7
100
AcDbLine
 10
87.111134
 20
82.063553
 30
0.0
 11
82.049772
 21
87.125087
 31
0.0
  0
LINE
  5
70
100
AcDbEntity
  8
LAYER_1
 62
     7
100
AcDbLine
 10
106.918194
 20
62.256321
 30
0.0
 11
87.111134
 21
82.063553
 31
0.0
  0
LINE
  5
6F
100
AcDbEntity
  8
LAYER_1
 62
     7
100
AcDbLine
 10
88.458683
 20
82.064931
 30
0.0
 11
83.377167
 21
87.145068
 31
0.0
  0
LINE
  5
6E
100
AcDbEntity
  8
LAYER_1
 62
     7
100
AcDbLine
 10
108.241455
 20
62.280781
 30
0.0
 11
88.458683
 21
82.064931
 31
0.0
  0
LINE
  5
6D
100
AcDbEntity
  8
LAYER_1
 62
     7
100
AcDbLine
 10
78.538186
 20
62.340036
 30
0.0
 11
38.470692
 21
102.407186
 31
0.0
  0
LINE
  5
6C
100
AcDbEntity
  8
LAYER_1
 62
     7
100
AcDbLine
 10
79.924837
 20
62.300762
 30
0.0
 11
38.470692
 21
103.754563
 31
0.0
  0
LINE
  5
6B
100
AcDbEntity
  8
LAYER_1
 62
     7
100
AcDbLine
 10
81.291162
 20
62.280781
 30
0.0
 11
38.470692
 21
105.102284
 31
0.0
  0
LINE
  5
6A
100
AcDbEntity
  8
LAYER_1
 62
     7
100
AcDbLine
 10
116.499349
 20
93.92605
 30
0.0
 11
73.406889
 21
93.92605
 31
0.0
  0
LINE
  5
69
100
AcDbEntity
  8
LAYER_1
 62
     7
100
AcDbLine
 10
142.736852
 20
93.92605
 30
0.0
 11
121.094417
 21
93.92605
 31
0.0
  0
LINE
  5
68
100
AcDbEntity
  8
LAYER_1
 62
     7
100
AcDbLine
 10
186.628402
 20
93.91916
 30
0.0
 11
148.442274
 21
93.91916
 31
0.0
  0
LINE
  5
67
100
AcDbEntity
  8
LAYER_1
 62
     7
100
AcDbLine
 10
86.801248
 20
100.035582
 30
0.0
 11
67.46875
 21
100.035582
 31
0.0
  0
LINE
  5
66
100
AcDbEntity
  8
LAYER_1
 62
     7
100
AcDbLine
 10
186.627024
 20
100.035582
 30
0.0
 11
90.762935
 21
100.035582
 31
0.0
  0
SPLINE
  5
65
100
AcDbEntity
  8
LAYER_1
 62
     7
100
AcDbSpline
210
0.0
220
0.0
230
1.0
 70
     8
 71
     3
 72
    26
 73
    22
 74
     0
 42
0.00000001
 43
0.00000001
 40
0.0
 40
0.0
 40
0.0
 40
0.0
 40
1.0
 40
1.0
 40
1.0
 40
2.0
 40
2.0
 40
2.0
 40
3.0
 40
3.0
 40
3.0
 40
4.0
 40
4.0
 40
4.0
 40
5.0
 40
5.0
 40
5.0
 40
6.0
 40
6.0
 40
6.0
 40
7.0
 40
7.0
 40
7.0
 40
7.0
 10
186.62977973090275
 20
89.136678059895829
 30
0.0
 10
186.62977973090275
 20
89.136678059895829
 30
0.0
 10
71.717414008246521
 20
89.136678059895829
 30
0.0
 10
71.717414008246521
 20
89.136678059895829
 30
0.0
 10
71.717414008246521
 20
89.136678059895829
 30
0.0
 10
67.248436143663184
 20
93.4861111111111
 30
0.0
 10
67.248436143663184
 20
93.4861111111111
 30
0.0
 10
67.248436143663184
 20
93.4861111111111
 30
0.0
 10
67.210884602864581
 20
162.56044786241318
 30
0.0
 10
67.210884602864581
 20
162.56044786241318
 30
0.0
 10
66.927697753906244
 20
163.25308430989583
 30
0.0
 10
66.225070529513886
 20
163.67924262152775
 30
0.0
 10
65.479896375868051
 20
163.61016845703122
 30
0.0
 10
65.479896375868051
 20
163.61016845703122
 30
0.0
 10
65.485925292968744
 20
92.757128906249989
 30
0.0
 10
65.485925292968744
 20
92.757128906249989
 30
0.0
 10
65.485925292968744
 20
92.757128906249989
 30
0.0
 10
70.940200466579853
 20
87.374167209201374
 30
0.0
 10
70.940200466579853
 20
87.374167209201374
 30
0.0
 10
70.940200466579853
 20
87.374167209201374
 30
0.0
 10
186.62977973090275
 20
87.374167209201374
 30
0.0
 10
186.62977973090275
 20
87.374167209201374
 30
0.0
  0
POLYLINE
  5
5F
100
AcDbEntity
  8
LAYER_1
 62
     7
100
AcDb2dPolyline
 66
     1
 10
0.0
 20
0.0
 30
0.0
  0
VERTEX
  5
60
100
AcDbEntity
  8
LAYER_1
 62
     7
100
AcDbVertex
100
AcDb2dVertex
 10
41.100161
 20
189.861279
 30
0.0
  0
VERTEX
  5
61
100
AcDbEntity
  8
LAYER_1
 62
     7
100
AcDbVertex
100
AcDb2dVertex
 10
41.092927
 20
176.886016
 30
0.0
  0
VERTEX
  5
62
100
AcDbEntity
  8
LAYER_1
 62
     7
100
AcDbVertex
100
AcDb2dVertex
 10
41.100161
 20
146.905073
 30
0.0
  0
VERTEX
  5
63
100
AcDbEntity
  8
LAYER_1
 62
     7
100
AcDbVertex
100
AcDb2dVertex
 10
41.100161
 20
62.322466
 30
0.0
  0
SEQEND
  5
64
100
AcDbEntity
  8
LAYER_1
 62
     7
  0
POLYLINE
  5
55
100
AcDbEntity
  8
LAYER_1
 62
     7
100
AcDb2dPolyline
 66
     1
 10
0.0
 20
0.0
 30
0.0
 70
     1
  0
VERTEX
  5
56
100
AcDbEntity
  8
LAYER_1
 62
     7
100
AcDbVertex
100
AcDb2dVertex
 10
78.66221
 20
167.943926
 30
0.0
  0
VERTEX
  5
57
100
AcDbEntity
  8
LAYER_1
 62
     7
100
AcDbVertex
100
AcDb2dVertex
 10
78.660832
 20
172.184494
 30
0.0
  0
VERTEX
  5
58
100
AcDbEntity
  8
LAYER_1
 62
     7
100
AcDbVertex
100
AcDb2dVertex
 10
74.551177
 20
172.184494
 30
0.0
  0
VERTEX
  5
59
100
AcDbEntity
  8
LAYER_1
 62
     7
100
AcDbVertex
100
AcDb2dVertex
 10
74.55135
 20
167.943926
 30
0.0
  0
VERTEX
  5
5A
100
AcDbEntity
  8
LAYER_1
 62
     7
100
AcDbVertex
100
AcDb2dVertex
 10
74.991633
 20
167.943926
 30
0.0
  0
VERTEX
  5
5B
100
AcDbEntity
  8
LAYER_1
 62
     7
100
AcDbVertex
100
AcDb2dVertex
 10
74.991633
 20
171.743867
 30
0.0
  0
VERTEX
  5
5C
100
AcDbEntity
  8
LAYER_1
 62
     7
100
AcDbVertex
100
AcDb2dVertex
 10
78.221582
 20
171.743867
 30
0.0
  0
VERTEX
  5
5D
100
AcDbEntity
  8
LAYER_1
 62
     7
100
AcDbVertex
100
AcDb2dVertex
 10
78.221582
 20
167.943926
 30
0.0
  0
SEQEND
  5
5E
100
AcDbEntity
  8
LAYER_1
 62
     7
  0
MTEXT
  5
54
100
AcDbEntity
  8
LAYER_1
 62
     7
100
AcDbMText
 10
14.864553
 20
219.2578
 30
0.0
 40
4.572541
 41
0.0
 71
     1
 72
     2
  1
\W0.50;\fMS Gothic|b0|i0|c128;●あご下タイプ　ホルダー方式　
  7
KANJISTD
210
0.0
220
0.0
230
1.0
 11
1.000001
 21
0.0
 31
0.0
 73
     1
 44
1.0
  0
POLYLINE
  5
4E
100
AcDbEntity
  8
LAYER_1
 62
     7
100
AcDb2dPolyline
 66
     1
 10
0.0
 20
0.0
 30
0.0
 70
     1
  0
VERTEX
  5
4F
100
AcDbEntity
  8
LAYER_1
 62
     7
100
AcDbVertex
100
AcDb2dVertex
 10
114.991431
 20
227.699624
 30
0.0
  0
VERTEX
  5
50
100
AcDbEntity
  8
LAYER_1
 62
     7
100
AcDbVertex
100
AcDb2dVertex
 10
114.991431
 20
238.404397
 30
0.0
  0
VERTEX
  5
51
100
AcDbEntity
  8
LAYER_1
 62
     7
100
AcDbVertex
100
AcDb2dVertex
 10
5.022777
 20
238.404397
 30
0.0
  0
VERTEX
  5
52
100
AcDbEntity
  8
LAYER_1
 62
     7
100
AcDbVertex
100
AcDb2dVertex
 10
5.022777
 20
227.699624
 30
0.0
  0
SEQEND
  5
53
100
AcDbEntity
  8
LAYER_1
 62
     7
  0
MTEXT
  5
4D
100
AcDbEntity
  8
LAYER_1
 62
     7
100
AcDbMText
 10
9.35843
 20
236.06491
 30
0.0
 40
5.334635
 41
0.0
 71
     1
 72
     2
  1
\W0.50;\fMS Gothic|b0|i0|c128;■乾式保護工法標準納まり詳細図
  7
KANJISTD
210
0.0
220
0.0
230
1.0
 11
1.000001
 21
0.0
 31
0.0
 73
     1
 44
1.0
  0
POLYLINE
  5
40
100
AcDbEntity
  8
LAYER_1
 62
     7
100
AcDb2dPolyline
 66
     1
 10
0.0
 20
0.0
 30
0.0
  0
VERTEX
  5
41
100
AcDbEntity
  8
LAYER_1
 62
     7
100
AcDbVertex
100
AcDb2dVertex
 10
38.405063
 20
62.322466
 30
0.0
  0
VERTEX
  5
42
100
AcDbEntity
  8
LAYER_1
 62
     7
100
AcDbVertex
100
AcDb2dVertex
 10
38.391972
 20
148.101554
 30
0.0
  0
VERTEX
  5
43
100
AcDbEntity
  8
LAYER_1
 62
     7
100
AcDbVertex
100
AcDb2dVertex
 10
38.388527
 20
172.881265
 30
0.0
  0
VERTEX
  5
44
100
AcDbEntity
  8
LAYER_1
 62
     7
100
AcDbVertex
100
AcDb2dVertex
 10
38.393867
 20
188.938338
 30
0.0
  0
VERTEX
  5
45
100
AcDbEntity
  8
LAYER_1
 62
     7
100
AcDbVertex
100
AcDb2dVertex
 10
44.465158
 20
190.959576
 30
0.0
  0
VERTEX
  5
46
100
AcDbEntity
  8
LAYER_1
 62
     7
100
AcDbVertex
100
AcDb2dVertex
 10
44.465158
 20
194.496655
 30
0.0
  0
VERTEX
  5
47
100
AcDbEntity
  8
LAYER_1
 62
     7
100
AcDbVertex
100
AcDb2dVertex
 10
81.545927
 20
191.149573
 30
0.0
  0
VERTEX
  5
48
100
AcDbEntity
  8
LAYER_1
 62
     7
100
AcDbVertex
100
AcDb2dVertex
 10
84.222077
 20
188.25776
 30
0.0
  0
VERTEX
  5
49
100
AcDbEntity
  8
LAYER_1
 62
     7
100
AcDbVertex
100
AcDb2dVertex
 10
84.189693
 20
170.173937
 30
0.0
  0
VERTEX
  5
4A
100
AcDbEntity
  8
LAYER_1
 62
     7
100
AcDbVertex
100
AcDb2dVertex
 10
82.006708
 20
167.993708
 30
0.0
  0
VERTEX
  5
4B
100
AcDbEntity
  8
LAYER_1
 62
     7
100
AcDbVertex
100
AcDb2dVertex
 10
78.825163
 20
167.989746
 30
0.0
  0
SEQEND
  5
4C
100
AcDbEntity
  8
LAYER_1
 62
     7
  0
INSERT
  5
2C
100
AcDbEntity
  8
LAYER_1
 62
     7
100
AcDbBlockReference
  2
AI9-BLK1
 10
69.026967
 20
95.093076
 30
0.0
  0
ENDSEC
  0
SECTION
  2
OBJECTS
  0
DICTIONARY
  5
19
100
AcDbDictionary
280
     0
281
     1
  3
ACAD_GROUP
350
1A
  3
ACAD_MLINESTYLE
350
1B
  3
ACAD_LAYOUT
350
1E
  3
ACAD_PLOTSETTINGS
350
22
  3
ACAD_PLOTSTYLENAME
350
1F
  3
ACAD_WIPEOUT_VARS
350
23
  0
DICTIONARY
  5
1A
102
{ACAD_REACTORS
330
19
102
}
100
AcDbDictionary
280
     0
281
     1
  0
DICTIONARY
  5
1B
102
{ACAD_REACTORS
330
19
102
}
100
AcDbDictionary
280
     0
281
     1
  3
Standard
350
1C
  0
MLINESTYLE
  5
1C
102
{ACAD_REACTORS
330
1B
102
}
100
AcDbMlineStyle
  2
Standard
 70
     0
  3

 62
     0
 51
90.0
 52
90.0
 71
     2
 49
0.5
 62
   256
  6
BYLAYER
 49
-0.5
 62
   256
  6
BYLAYER
  0
ACDBDICTIONARYWDFLT
  5
1F
102
{ACAD_REACTORS
330
19
102
}
100
AcDbDictionary
281
     1
  3
Normal
350
1D
100
AcDbDictionaryWithDefault
340
1D
  0
ACDBPLACEHOLDER
  5
1D
102
{ACAD_REACTORS
330
1F
102
}
  0
LAYOUT
  5
20
102
{ACAD_REACTORS
330
1E
102
}
100
AcDbPlotSettings
  1

  2

  4

  6

 40
0.0
 41
0.0
 42
0.0
 43
0.0
 44
0.0
 45
0.0
 46
0.0
 47
0.0
 48
0.0
 49
0.0
140
0.0
141
0.0
142
1.0
143
1.0
 70
  1024
 72
     0
 73
     0
 74
     0
  7

 75
     0
147
1.0
148
0.0
149
0.0
100
AcDbLayout
  1
Model
 70
     0
 71
     0
 10
0.0
 20
0.0
 11
0.0
 21
0.0
 12
0.0
 22
0.0
 32
0.0
 14
0.0
 24
0.0
 34
0.0
 15
0.0
 25
0.0
 35
0.0
146
0.0
 13
0.0
 23
0.0
 33
0.0
 16
0.0
 26
0.0
 36
0.0
 17
0.0
 27
0.0
 37
0.0
 76
     0
330
A
331
0
345
0
346
0
  0
LAYOUT
  5
21
102
{ACAD_REACTORS
330
1E
102
}
100
AcDbPlotSettings
  1

  2

  4

  6

 40
0.0
 41
0.0
 42
0.0
 43
0.0
 44
0.0
 45
0.0
 46
0.0
 47
0.0
 48
0.0
 49
0.0
140
0.0
141
0.0
142
1.0
143
1.0
 70
     0
 72
     0
 73
     0
 74
     0
  7

 75
     0
147
1.0
148
0.0
149
0.0
100
AcDbLayout
  1
Layout1
 70
     0
 71
     0
 10
0.0
 20
0.0
 11
0.0
 21
0.0
 12
0.0
 22
0.0
 32
0.0
 14
0.0
 24
0.0
 34
0.0
 15
0.0
 25
0.0
 35
0.0
146
0.0
 13
0.0
 23
0.0
 33
0.0
 16
0.0
 26
0.0
 36
0.0
 17
0.0
 27
0.0
 37
0.0
 76
     0
330
B
331
0
345
0
346
0
  0
DICTIONARY
  5
1E
102
{ACAD_REACTORS
330
19
102
}
100
AcDbDictionary
280
     0
281
     1
  3
Layout1
350
21
  3
Model
350
20
  0
DICTIONARY
  5
22
102
{ACAD_REACTORS
330
19
102
}
100
AcDbDictionary
280
     0
281
     1
  0
WIPEOUTVARIABLES
  5
23
100
AcDbWipeoutVariables
 70
     1
  0
ENDSEC
  0
EOF
